Guitar Tabs, Chords and Lyrics
Major upgrade!! After one year development the new version of Chordie is now online! Please give feedback.


Tourette√Ę??s   Nirvana

 
 *--------------------------------------------------------------------*
 *--------------------------------------------------------------------*

 


 


 This tab is a live verson. It is in Standard Tuning (E,a,D,G,B,E)


 It goes a little somethin like this......


 


 Intro/Verses:


 


 

 
 E[------------------------------------------------------]
 B[------------------------------------------------------]
 G[------------2-2-2-2---3-3-3-3-------------------------]
 D[--3-3-3-3---2-2-2-2-0-3-3-3-3-0-4-4-4-4---------------]
 A[--3-3-3-3---0-0-0-0-0-1-1-1-1-0-4-4-4-4---------------]
 E[--1-1-1-1-0---------------------2-2-2-2---------------]

 


 


 Bridge/intrlude


 (or whatever the hell you want to call it have some fun with it)


 


 

 
 E[-----------------------------------------------------]
 B[-----------------------------------------------------]
 G[---2-3-22-3-2-3-22-3-2-3] [22-3-2-3-22-3---------------]
 D[---0--------0--------0--------0----------------------]
 A[-----------------------------------------------------]
 E[-----------------------------------------------------] 


Important: The song above is NOT stored on the Chordie server. The original song is hosted at www.guitartabs.cc. Chordie works as a search engine and provides on-the-fly formatting. Chordie does not index songs against artists'/composers' will. To remove this song please click here.

This song is displayed as text-only. Transposing and tuning is only available for chordpro-songs.
Rate #1 of 15 versions

Jango Player

Login - add to songbook

SHARE PAGE  




You need to log in to post comments