Guitar Tabs, Chords and Lyrics
Major upgrade!! After one year development the new version of Chordie is now online! Please give feedback.


A Bell Will Ring  Oasis

this is what sounds right to me, they throw in some other stuff i cant catch but o well....
Intro
 
 e|------------------------------2p0-0-2--2-2--2--------|
 B|------5-----5--7p5-4-4-4h5p4--2p0-0-2--2-2--2--------|
 G|------------------------------0----------------------|
 D|--4h6---4h6------------------------------------------|
 A|-----------------------------------------------------|
 E|-----------------------------------------------------|
 e|-------------------------------2p0-0-2--2h4-0-0--0---|
 B|-------5-----5--7p5-4-4-4h5p4--2p0-0-2--2p0-0-0--0---|
 G|-------------------------------------------------4---|
 D|--2\4h6---4h6----------------------------------------|
 A|-----------------------------------------------------|
 E|-----------------------------------------------------|
 e|------------2p0-0-2--2--2-2--2--2--------------------|
 B|--0-0--0----2p0-0-2--2--2-2--2--2--------------------|
 G|--4-4--4---------------------------------------------|
 D|--1-1--1/2-------------------------------------------|
 A|-----------------------------------------------------|
 E|-----------------------------------------------------|

Verse
[E]a little space, a little time
[Dsus2]see what it can do[E]
[E]a little faith, a piece of mind
[Dsus2]see what puts things throug[E]h
[Dsus2]the sun will shine on you a[Asus2]gain
[E]a bell will ring ins[Dsus2]ide your head
[A]and all will be brand new[E]
[E]come along, come on in
[Dsus2]here's something that you'll know[E]
[E]who wonders why as your restless there ?
[Dsus2]so entertain your goal[E]
[Dsus2]the sun will shine on you a[Asus2]gain
[E]a bell wi[Dsus2]ll ring inside your head
Riff 1
 
 e|--4-2-0----------------------------------------------|
 B|--------4--------------------------------------------|
 G|-----------------------------------------------------|
 D|-----------------------------------------------------|
 A|-----------------------------------------------------|
 E|-----------------------------------------------------|

[A]and all will be brand new[E]
[A]all will be brand new[E]
( Tab from: http://www.guitartabs.cc/tabs/o/oasis/a_bell_will_ring_tab_ver_2.html )
Riff 2
 
 e|-----------------------------------------------------|
 B|-----------------------------------------------------|
 G|-----------------------------------------------------|
 D|--------2-3-4----------------------------------------|
 A|--2/4-4----------------------------------------------|
 E|-----------------------------------------------------|

[E]i can tell you what you want to hear
[Dsus2]i've been here once befor[E]e
[E]you put me through my empty night
[Dsus]sleepless on your floor[E]
[Dsus2]the sun will shine on you ag[Asus2]ain
[E]a bell will ring insi[Dsus2]de your head
[A]and all will be brand new[E]
[A]all will be brand new[E]
A E / A* E 3x

Important: The song above is NOT stored on the Chordie server. The original song is hosted at www.guitartabs.cc. Chordie works as a search engine and provides on-the-fly formatting. Chordie does not index songs against artists'/composers' will. To remove this song please click here.

Text color:
Chord color:
Chord grids: 
Font size:    
Page size: 

A Asus2 Dsus Dsus2 E
Rate #1 of 11 versions

Login - add to songbook

SHARE PAGE  



You need to log in to post comments