Guitar Tabs, Chords and Lyrics
Server problems seems to be fixed. Chordie has been experiencing problems with songs disappearing. These issues now seems to be fixed, but still verifying the fix. If you find anything strange, please email admin@chordie.com.


All Around the World  Oasis

As recorded by Oasis
(From the 1997 Album BE HERE NOW)
Transcribed by Gareth Simpson
Words and Music by Noel Gallagher
[B]x 2 4 4 4 x
[F#]  
[2] [4] [4] [3] [2] [2]  
[E]0 2 2 1 0 0
[G#m]  
[4] [6] [6] [4] [4] [4]  
[C#]x 4 6 6 6 x
[E5]0 7 9 9 0 0
[B/F#]2 x 4 4 4 x
[G7]  
[3] [5] [3] [4] [3] [3]  
[F]  
[1] [3] [3] [2] [1] [1]  
[A]x 0 2 2 2 0
[Bb]x 1 3 3 3 x
[G]3 2 0 0 3 3
[C]x 3 2 0 1 0
[D]x x 0 2 3 2
[Dsus4]x x 0 2 3 3
[Fadd9]x x 3 2 1 3
Gtr I (E A D G B E) - 'elec w/distortion'
Gtr II (E A D G B E) - 'elec w/ clean sound'
Gtr III (E A D G B E) - 'acoustic'
Gtr IV (E A D G B E) - 'elec w/ distortion'
Gtr V (E A D G B E) - 'elec w/ distortion'
Gtr VI (E A D G B E) - 'elec w/ distortion'
Intro
Q=82(16=s16)
[B] [F#]  
[4/4] Gtr III
Q E. S S S E E S S Q E. S S S E E S S
| | | | | | | | | | | | | | | | | |
[/] [/] [/] [/] [/] [/] [/] [/] [/] [/] [/] [/] [/] [/] [/] [/] [/] [/] 
Gtrs I, II
W W
 
 |-!0-------------------|-!0-------------------|
 |-!0-------------------|-!0-------------------|
 |-!8-------------------|-!3-------------------|
 |-!9-------------------|-!4-------------------|
 |----------------------|----------------------|
 |----------------------|----------------------|

[E] Q E. S S S E E S S [G#m] Q E. S [F#] S S E E S S
| | | | | | | | | | | | | | | | | |
[/] [/] [/] [/] [/] [/] [/] [/] [/] [/] [/] [/] [/] [/] [/] [/] [/] [/] 
W H H
 
 |-!0-------------------|-!0-------!0------------|
 |-!0-------------------|-!0-------!0------------|
 |-!1-------------------|-!4-------!3------------|
 |-!2-------------------|-!6-------!4------------|
 |----------------------|------------------------|
 |----------------------|------------------------|

[B] Q E. S S S E E S S [F#] Q E. S S S E E S S
| | | | | | | | | | | | | | | | | |
[/] [/] [/] [/] [/] [/] [/] [/] [/] [/] [/] [/] [/] [/] [/] [/] [/] [/] 
H +E E Q H Q Q
 
 |----------------0-------|----------0-----------|
 |-!0-------(0)-----0-----|-!0-------------0-----|
 |-!8-------(8)-----------|-!3-------------------|
 |-!9-------(9)-----------|-!4-------------------|
 |------------------------|----------------------|
 |------------------------|----------------------|

[E] Q E. S S S E E S S [G#m] Q E. S S [F#]S E E S S
| | | | | | | | | | | | | | | | | |
[/] [/] [/] [/] [/] [/] [/] [/] [/] [/] [/] [/] [/] [/] [/] [/] [/] [/] 
Gtr I
W H H
 
 |-!0-------------------|-!0-------!0--------------||
 |-!0-------------------|-!0-------!0--------------||
 |-!1-------------------|-!4-------!3--------------||
 |-!2-------------------|-!6-------!4--------------||
 |----------------------|---------------------2----||
 |----------------------|---------------2-2h4------||

H E E S S E
Verse
[B]Gtr III[F#] [E]
[E]| [E]| [E]| [E]| [E]| [E]| [E]| [E]| [E]| [E]| [E]| [E]| [E]| [E]| [E]| [E]| [E]| [E]| [E]| [E]| [E]| [E]| [E]| [E]|
[/] [/] [/] [/] [/] [/] [/] [/] [/] [/] [/] [/] [/] [/] [/] [/] [/] [/] [/] [/] [/] [/] [/] [/] 
Gtr II
E E E. S S S E E S S E E E. S S S E E S S E E E. S S S E E S S
 
 ||-------------------------|------------------------|-------------------------|
 ||o-4-4-4----4-4-4-4-4-4-4-|-2-2-2----2-2-2-2-2-2-2-|-0-0-0----0-0-0-0-0-0-0--|
 ||--4-4-4----4-4-4-4-4-4-4-|-3-3-3----3-3-3-3-3-3-3-|-1-1-1----1-1-1-1-1-1-1--|
 ||--4-4-4----4-4-4-4-4-4-4-|-4-4-4----4-4-4-4-4-4-4-|-2-2-2----2-2-2-2-2-2-2--|
 ||o-2-2-2------2---2-2-2---|-4-4-4------4---4-4-----|-2-2-2------2---2-2-2----|
 ||-------------------------|-2-2-2------2---2-2-----|-0-0-0------0---0-0-0----|

[B] [B]  
[G#m] [F#] [B] [F#] 
[E]| [E]| [E]| [E]| [E]| [E]| [E]| [E]| [E]| [E]| [E]| [E]| [E]| [E]| [E]| [E]| [E]| [E]| [E]| [E]| [E]| [E]| [E]| [E]|
[/] [/] [/] [/] [/] [/] [/] [/] [/] [/] [/] [/] [/] [/] [/] [/] [/] [/] [/] [/] [/] [/] [/] [/] 
E E E S S S S E E S S E E E. S S S E E S S E E E. S S S E E S S
 
 |-----------------------|------------------------|------------------------|
 |-4-4-4-4-4-2-2-2-2-2-2-|-4-4-4----4-4-4-4-4-4-4-|-2-2-2----2-2-2-2-2-2-2-|
 |-4-4-4-4-4-3-3-3-3-3-3-|-4-4-4----4-4-4-4-4-4-4-|-3-3-3----3-3-3-3-3-3-3-|
 |-6-6-6-6-6-4-4-4-4-4-4-|-4-4-4----4-4-4-4-4-4-4-|-4-4-4----4-4-4-4-4-4-4-|
 |-6-6-6-6---4---4-4-4---|-2-2-2------2---2-2-2---|-4-4-4------4---4-4-----|
 |-4-4-4-4---2---2-2-2---|------------------------|-2-2-2------2---2-2-----|

[E] [G#m] [F#] 
[E]| [E]| [E]| [E]| [E]| [E]| [E]| [E]| [E]| [E]| [E]| [E]| [E]| [E]| [E]| [E]|
[/] [/] [/] [/] [/] [/] [/] [/] [/] [/] [/] [/] [/] [/] [/] [/] 
E E E. S S S E E S S E E E S S S S E E S S
 
 |------------------------|-----------------------||
 |-0-0-0----0-0-0-0-0-0-0-|-4-4-4-4-4-2-2-2-2-2-2-||
 |-1-1-1----1-1-1-1-1-1-1-|-4-4-4-4-4-3-3-3-3-3-3-||
 |-2-2-2----2-2-2-2-2-2-2-|-6-6-6-6-6-4-4-4-4-4-4-||
 |-2-2-2------2---2-2-2---|-6-6-6-6---4---4-4-4---||
 |-0-0-0------0---0-0-0---|-4-4-4-4---2---2-2-2---||

Bridge
[C#]Gtr II[E5]
[E]| [E]| [E]| [E]| [E]| [E]| [E]| [E]| [E]| [E]| [E]| [E]| [E]| [E]| [E]| [E]|
[/] [/] [/] [/] [/] [/] [/] [/] [/] [/] [/] [/] [/] [/] [/] [/] 
Gtr IV
E E E S S S S E E S S E E E S S S S E E S S
 
 |-----------------------|-0---0-----------0---0-|
 |-6-6-6-6-6-6-6-6-6-6-6-|-0---0-0-0-0-0-0-0---0-|
 |-6-6-6-6-6-6-6-6-6-6-6-|-1---1-1-1-1-1-1-1-----|
 |-6-6-6-6-6-6-6-6-6-6-6-|-2-2-2-2-2-2-2-2-2-2---|
 |-4-4-4-4---4---4-4-4---|-2-2-2-2---2---2-2-2---|
 |-----------------------|-0-0-0-0---0---0-0-0---|

[G#m] [B/F#] [(F#5)] 
[E]| [E]| [E]| [E]| [E]| [E]| [E]| [E]| [E]| [E]| [E]| [E]| [E]| [E]| [E]| [E]|
[/] [/] [/] [/] [/] [/] [/] [/] [/] [/] [/] [/] [/] [/] [/] [/] 
E E E S S S S E E S S E E E S S S S E E E
 
 |-----------------------|---------------------|
 |-4-4-4-4-4-4-4-4-4-4-4-|-4-4-4-4-4-4-4-4-4---|
 |-4-4-4-4-4-4-4-4-4-4-4-|-4-4-4-4-4-4-4-4-4---|
 |-6-6-6-6-6-6-6-6-6-6-6-|-4-4-4-4-4-4-4-4-4-4-|
 |-6-6-6-6---6---6-6-6---|-------------------4-|
 |-4-4-4-4---4---4-4-4---|-2-2-2-2---2---2-2-2-|

[G7] [B] 
[E]| [E]| [E]| [E]| [E]| [E]| [E]| [E]| [E]| [E]| [E]| [E]| [E]| [E]| [E]| [E]|
[/] [/] [/] [/] [/] [/] [/] [/] [/] [/] [/] [/] [/] [/] [/] [/] 
E E E S S S S E E E E E E. S S S E E S S
 
 |----------------------------------------------|------------------------|
 |-----------3------3--3--3-----3--3---3-----3--|-4-4-4----4-4-4-4-4-4-4-|
 |-----------4------4--4--4-----4--4---4-----4--|-4-4-4----4-4-4-4-4-4-4-|
 |-3-----3---3------3--3--3-----3--3---3-----3--|-4-4-4----4-4-4-4-4-4-4-|
 |-5-----5---5------5-----5-----5------5--------|-2-2-2------2---2-2-2---|
 |-3-----3---3------3-----3-----3------3--------|------------------------|

|
| Gtr I
| ~
| E +E +E +E +E +E +E +E W
 
 |----------------------------------------------|------------------------|
 |----------------------------------------------|------------------------|
 |-6b7==(6)r(6)b7==(6)r==(6)b7====(6)r(6)b7-(6)-|-4----------------------|
 |----------------------------------------------|------------------------|
 |----------------------------------------------|------------------------|
 |----------------------------------------------|------------------------|

[E] [F#] [F] [E]  
[E]| [E]| [E]| [E]| [E]| [E]| [E]| [E]| [E]| [E]| [E]| [E]| [B]|
[/] [/] [/] [/] [/] [/] [/] [/] [/] [/] [/] [/] [/] 
E E E. S S S E E S S E E E E H
 
 |------------------------|----------------||
 |-0-0-0----0-0-0-0-0-0-0-|----------3-----||
 |-1-1-1----1-1-1-1-1-1-1-|-3-3-2-1-(1)----||
 |-2-2-2----2-2-2-2-2-2-2-|-4-4-3-2-(2)----||
 |-2-2-2------2---2-2-2---|-4-4-3-2-(2)----||
 |-0-0-0------0---0-0-0---|-2-2-1-0-(0)----||

Chorus
[B] [C#]  
[E]| [E]| [E]| [E]| [E]| [E]| [E]| [E]| [E]| [E]| [E]| [E]| [E]| [E]| [E]| [E]|
[/] [/] [/] [/] [/] [/] [/] [/] [/] [/] [/] [/] [/] [/] [/] [/] 
E E E. S S S E E S S E E E S S S S E E S S
 
 |------------------------|-----------------------|
 |-4-4-4----4-4-4-4-4-4-4-|-6-6-6-6-6-6-6-6-6-6-6-|
 |-4-4-4----4-4-4-4-4-4-4-|-6-6-6-6-6-6-6-6-6-6-6-|
 |-4-4-4----4-4-4-4-4-4-4-|-6-6-6-6-6-6-6-6-6-6-6-|
 |-2-2-2------2---2-2-2---|-4-4-4-4---4---4-4-4---|
 |------------------------|-----------------------|

[E] [B]  
[E]| [E]| [E]| [E]| [E]| [E]| [E]| [E]| [E]| [E]| [E]| [E]| [E]| [E]| [E]| [E]|
[/] [/] [/] [/] [/] [/] [/] [/] [/] [/] [/] [/] [/] [/] [/] [/] 
E E E S S S S E E S S E E E. S S S E E S S
 
 |-0---0-----------0---0-|------------------------|
 |-0---0-0-0-0-0-0-0---0-|-4-4-4----4-4-4-4-4-4-4-|
 |-1---1-1-1-1-1-1-1-----|-4-4-4----4-4-4-4-4-4-4-|
 |-2-2-2-2-2-2-2-2-2-2---|-4-4-4----4-4-4-4-4-4-4-|
 |-2-2-2-2---2---2-2-2---|-2-2-2------2---2-2-2---|
 |-0-0-0-0---0---0-0-0---|------------------------|

[C#]  
[E]| [E]| [E]| [E]| [E]| [E]| [E]| [E]| [E]| [E]| [E]| [E]| [E]| [E]| [E]| [E]|
[/] [/] [/] [/] [/] [/] [/] [/] [/] [/] [/] [/] [/] [/] [/] [/] 
E E E. S S S E E S S E E E S S S S E E S S
 
 |------------------------|-----------------------|
 |-4-4-4----4-4-4-4-4-4-4-|-6-6-6-6-6-6-6-6-6-6-6-|
 |-4-4-4----4-4-4-4-4-4-4-|-6-6-6-6-6-6-6-6-6-6-6-|
 |-4-4-4----4-4-4-4-4-4-4-|-6-6-6-6-6-6-6-6-6-6-6-|
 |-2-2-2------2---2-2-2---|-4-4-4-4---4---4-4-4---|
 |------------------------|-----------------------|

1.
[E] [B]Gtr III[A] [Bb]
E E E E E E E E E S S E S S E E +S S E
| | | | | | | | | | | | | | | | | | |
[/] [/] [/] [/] [/] [/] [/] [/] [/] [/] [/] [/] [/] [/] [/] [/] [/] [/] [/] 
E E E S S S S E E S S E E E. S E E Q
 
 |-0---0-----------0---0-|--------------------------||
 |-0---0-0-0-0-0-0-0---0-|-4-4---4----4-4----------o||
 |-1---1-1-1-1-1-1-1-----|-4-4---4----4-4-----------||
 |-2-2-2-2-2-2-2-2-2-2---|-4-4---4----4-4-----------||
 |-2-2-2-2---2---2-2-2---|-2-2---2------2----------o||
 |-0-0-0-0---0---0-0-0---|--------------------------||

2.
[B]Gtrs III, IV
E E E S S S S E E S S
| | | | | | | | | | |
[/] [/] [/] [/] [/] [/] [/] [/] [/] [/] [/]  
Gtr I
H S S E A +S +S E
 
 |----------------------------------||
 |----------------------------------||
 |---------------4-6b8==(6)r(6)p4---||
 |-----------4h6--------------------||
 |----------------------------------||
 |----------------------------------||

Guitar Break
[B]Gtrs II, III, IV
E E E S S S S E E S S
| | | | | | | | | | |
[/] [/] [/] [/] [/] [/] [/] [/] [/] [/] [/]  
Gtr I
[B] [A] [+E] [E] [A] [+E] [E]  
 
 |-----------------------------------|
 |---------------------7-------------|
 |-4---------6b8-(6)-----6b8-(6)-4---|
 |-----------------------------------|
 |-----------------------------------|
 |-----------------------------------|

[C#] E E E S S S S E E S S [E] E E E S S S S E E S S
| | | | | | | | | | | | | | | | | | | | | |
[/] [/] [/] [/] [/] [/] [/] [/] [/] [/] [/] [/] [/] [/] [/] [/] [/] [/] [/] [/] [/] [/] 
[+B] [A] [+E] [E] [A] [+E] [E] [+B] [A] [+E] [E] [E] [E]  
 
 |-------------------------------------|-------------------------------|
 |-----------------------7-------------|-----------------------7-------|
 |-(4)---------6b8-(6)-----6b8-(6)-4---|-(4)---------6b8-(6)-----6-4---|
 |-------------------------------------|---------------------------4---|
 |-------------------------------------|---------------------------2---|
 |-------------------------------------|-------------------------------|

[B] E E E S S S S E E S S
| | | | | | | | | | |
[/] [/] [/] [/] [/] [/] [/] [/] [/] [/] [/]  
+H S S E a +S +S S S
 
 |------------------------------------|
 |------------------------------------|
 |-(4)-------------4-6b8==(6)r(6)p4---|
 |-(4)---------4h6------------------4-|
 |-(2)--------------------------------|
 |------------------------------------|

[C#]E E E S S S S E E S S [E] E E E S S S S E E S S
| | | | | | | | | | | | | | | | | | | | | |
[/] [/] [/] [/] [/] [/] [/] [/] [/] [/] [/] [/] [/] [/] [/] [/] [/] [/] [/] [/] [/] [/] 
H A +E E A +E E +H A +E Q.
 
 |-----------------------------------|--------------------------------|
 |---------------------7-------------|-----------------------7--------|
 |-4---------6b8-(6)-----6b8-(6)-4---|-(4)---------6b8-(6)------------|
 |-----------------------------------|--------------------------------|
 |-----------------------------------|--------------------------------|
 |-----------------------------------|--------------------------------|

[B] E S S E [E]E +S S E S S E [B] E S S E [E]E +S S E S S E
| | | | | | | | | | | | | | | | | | | | | |
[/] [/] [/] [/] [/] [/] [/] [/] [/] [/] [/] [/] [/] [/] [/] [/] [/] [/] [/] [/] [/] [/] 
A +Q +E E +H A +Q +E E +H
 
 |-----------------------------------|-----------------------------------|
 |-7b9==(7)r====(7)-5-(5)------------|-7b9==(7)r====(7)-5-(5)------------|
 |-----------------------------------|-----------------------------------|
 |-----------------------------------|-----------------------------------|
 |-----------------------------------|-----------------------------------|
 |-----------------------------------|-----------------------------------|

|
| Gtrs V, VI
| Q. E +H Q. E +H
 
 |-----------------------------------|-----------------------------------|
 |-------4s=========9-(9)\-----------|-------4s=========9-(9)\-----------|
 |-------4s=========9-(9)\-----------|-------4s=========9-(9)\-----------|
 |-------4s=========9-(9)\-----------|-------4s=========9-(9)\-----------|
 |-----------------------------------|-----------------------------------|
 |-----------------------------------|-----------------------------------|

[B] E S S E [E]E +S S E S S E
| | | | | | | | | | |
[/] [/] [/] [/] [/] [/] [/] [/] [/] [/] [/]  
A +Q +E E +H
 
 |-------------------------------------|
 |-7b9==(7)r====(7)-5-(5)--------------|
 |-------------------------------------|
 |-------------------------------------|
 |-------------------------------------|
 |-------------------------------------|

|
| Q. E +H
 
 |-------------------------------------|
 |-------4s=========9-(9)\-------------|
 |-------4s=========9-(9)\-------------|
 |-------4s=========9-(9)\-------------|
 |-------------------------------------|
 |-------------------------------------|

( Tab from: http://www.guitartabs.cc/tabs/o/oasis/all_around_the_world_tab_ver_4.html )
[G] [E]  
[E]| [E]| [E]| [E]| [E]| [E]| [E]| [E]| [E]| [E]| [E]| [E]| [E]| [E]| [E]| [E]|
/ / / / / / o o / / / / / / / /
Q Q Q E E +E S S S E a +S +S +S E Q
 
 |--------------------|---------------------------------------|
 |--------------------|---------------------------------------|
 |-0----0---0---------|---------------------------------------|
 |--------------------|----------5-7---7b9==(7)-(7)r(7)-5-----|
 |---------------7--7-|--(7)-5h7--------------------------7---|
 |--------------------|---------------------------------------|

|
| H. E E W
 
 |--------------------|--12-----------------------------------|
 |-0------------10s12-|-(12)----------------------------------|
 |-0------------------|---------------------------------------|
 |-0------------------|---------------------------------------|
 |--------------------|---------------------------------------|
 |--------------------|---------------------------------------|

[G] [E]  
[E]| [E]| [E]| [E]| [E]| [E]| [E]| [E]| [E]| [E]| [E]| [E]| [E]| [E]| [E]| [E]|
/ / / / / / o o / / / / / / / /
Q Q Q E E E S S S E a +S +S +S E Q
 
 |--------------------|--------------------------------------------------|
 |--------------------|--------------------------------------------------|
 |-0----0---0---------|------------12-14---14b16==(14)-(14)r(14)-12------|
 |--------------------|------12-14----------------------------------14---|
 |---------------7--7-|--------------------------------------------------|
 |--------------------|---0----------------------------------------------|

| W
|
| H. E E W
 
 |--------------------|--12----------------------------------------------|
 |-0------------10s12-|-(12)---------------------------------------------|
 |-0------------------|--------------------------------------------------|
 |-0------------------|--------------------------------------------------|
 |--------------------|--------------------------------------------------|
 |--------------------|--------------------------------------------------|

[G] [E]  
[E]| [E]| [E]| [E]| [E]| [E]| [E]| [E]| [E]| [E]| [E]| [E]| [E]| [E]| [E]| [E]|
/ / / / / / o o / / / / / / / /
Q Q Q E E E E S S E S S E Q
 
 |--------------------|-----------------------------------|
 |--------------------|------14-12-(12)-------------------|
 |-0----0---0---------|------14-12h=13-----------12-------|
 |--------------------|-----------------14-12h14----14\---|
 |---------------7--7-|-----------------------------------|
 |--------------------|---0-------------------------------|

| W
|
| H. E E W
 
 |--------------------|--12-------------------------------|
 |-0------------10s12-|-(12)------------------------------|
 |-0------------------|-----------------------------------|
 |-0------------------|-----------------------------------|
 |--------------------|-----------------------------------|
 |--------------------|-----------------------------------|

[G]  
[E]| [E]| [E]| [E]| [E]| [E]| [E]| [E]| [E]| [E]| [E]| [E]| [E]| [E]| [E]| [E]|
/ / / / / / o o / / / / / / / /
Gtrs I, V, VI
TP
Q Q Q Q W
 
 |-----------------|-x\---------------||
 |-0---0---0---0---|------------------||
 |-0---0---0---0---|------------------||
 |-0---0---0---0---|------------------||
 |-----------------|------------------||
 |-----------------|------------------||

Chorus (key change)
[C]E E E S S S S E E S S
| | | | | | | | | | |
[/] [/] [/] [/] [/] [/] [/] [/] [/] [/] [/]  
Gtr I
H. E E
 
 ||-------------------------|
 ||o------------------------|
 ||--5----------------5-5---|
 ||--5----------------5-5---|
 ||o-3----------------3-3---|
 ||-------------------------|

[D]E E E S S [DsusD]S S E E S S [Fadd9]E E E S S S S E E S S
| | | | | | | | | | | | | | | | | | | | | |
[/] [/] [/] [/] [/] [/] [/] [/] [/] [/] [/] [/] [/] [/] [/] [/] [/] [/] [/] [/] [/] [/] 
H. Q H. +E S S
 
 |------------------------|---------------------------|
 |-3----------------3-----|---------------------------|
 |-2----------------2-----|---------------------------|
 |-0----------------0-----|-3----------------(3)-3-3--|
 |------------------------|-3----------------(3)-3-3--|
 |------------------------|-1----------------(1)-1-1--|

[C]E E E S S S S E E S S E E E S S S S E E S S [D]E E E S S [DsusD]S S E E S S
| | | | | | | | | | | | | | | | | | | | | | | | | | | | | | | | |
[/] [/] [/] [/] [/] [/] [/] [/] [/] [/] [/] [/] [/] [/] [/] [/] [/] [/] [/] [/] [/] [/] [/] [/] [/] [/] [/] [/] [/] [/] [/] [/] [/] 
Q E. S E E E E H. E E H. Q
 
 |------------------------|------------------------|------------------------|
 |------------------------|------------------------|-3----------------3-----|
 |-5---5----5-5---5-5-5---|-5----------------5-5---|-2----------------2-----|
 |-5---5----5-5---5-5-5---|-5----------------5-5---|-0----------------0-----|
 |-3---3----3-3---3-3-3---|-3----------------3-3---|------------------------|
 |------------------------|------------------------|------------------------|

1.
[Fadd9]E E E S S S S E E S S [C]E E E S S S S E E S S
| | | | | | | | | | | | | | | | | | | | | |
[/] [/] [/] [/] [/] [/] [/] [/] [/] [/] [/] [/] [/] [/] [/] [/] [/] [/] [/] [/] [/] [/] 
H. +E S S Q E. S E E E E
 
 |--------------------------|-------------------------||
 |--------------------------|------------------------o||
 |--------------------------|-5---5----5-5---5-5-5----||
 |-3----------------(3)-3-3-|-5---5----5-5---5-5-5----||
 |-3----------------(3)-3-3-|-3---3----3-3---3-3-3---o||
 |-1----------------(1)-1-1-|-------------------------||

2.
[C]E E E S S S S E E [B] S [Bb] S
| | | | | | | | | | |
[/] [/] [/] [/] [/] [/] [/] [/] [/] [/] [/]  
|--3--|
H. E E E
 
 |----------------------------||
 |----------------------------||
 |-5----------------5-4---3---||
 |-5----------------5-4---3---||
 |-3----------------3-2---1---||
 |----------------------------||

Middle (key change)
[A]E E E S S S S E E S S
| | | | | | | | | | |
[/] [/] [/] [/] [/] [/] [/] [/] [/] [/] [/] 
S E. +H E A +E
 
 |--------------------------------------|
 |-2----------------------10b12==(10)r==|
 |---2----(2)---------------------------|
 |--------------------------------------|
 |--------------------------------------|
 |--------------------------------------|

[G] E E E S S S S E E S S [A] E E E S S S S E E S S
| | | | | | | | | | | | | | | | | | | | | |
[/] [/] [/] [/] [/] [/] [/] [/] [/] [/] [/] [/] [/] [/] [/] [/] [/] [/] [/] [/] [/] [/] 
~~
+H E S S S S S S +E Q. +E E E a +E
 
 |----------------------------------|-----------------------------------|
 |-(10)-----------------------------|-----------------------------------|
 |------------------5---7p5---5b5.5-|-(5)--------------------7b8==(7)r==|
 |--------------------7-----7-------|-----7--------(7)------------------|
 |----------------------------------|-----------------------------------|
 |----------------------------------|-----------------------------------|

[G] E E E S S S S E E S S
| | | | | | | | | | |
[/] [/] [/] [/] [/] [/] [/] [/] [/] [/] [/]  
~~~
+H a +E S S S E S
 
 |---------------------------------------|
 |---------------------------------------|
 |-(7)-----------------------------------|
 |---------------------------------------|
 |-------------5b6-(5)---5-5-3-5---3b3.5-|
 |---------------------------------------|

[A] E E E S S S S E E S S [G] E E E S S S S E E S S
| | | | | | | | | | | | | | | | | | | | | |
[/] [/] [/] [/] [/] [/] [/] [/] [/] [/] [/] [/] [/] [/] [/] [/] [/] [/] [/] [/] [/] [/] 
~~
+E E H. +H A +E S S S E S
 
 |--------------------------|-------------------------------------|
 |--------------------------|-------------------------------------|
 |--------------------------|-------------------------------------|
 |--------------------------|-------------------------------------|
 |-(3)----------------------|-------------5b6-(5)---5-5-3-4-------|
 |-----5-5------------------|-(5)-----------------------------5---|

[A]E E E S S S S E E S S E E E S S S S E E S S
| | | | | | | | | | | | | | | | | | | | | |
[/] [/] [/] [/] [/] [/] [/] [/] [/] [/] [/] [/] [/] [/] [/] [/] [/] [/] [/] [/] [/] [/] 
[E] [E] [E] [E] [E] [E] [E] [E] [E] [E] [E] [E] [E] [E] [E] [E]  
 
 |-----------------------|-----------------------||
 |-----------------------|-----------------------||
 |-----------------------|-----------------------||
 |-----------------------|-2-2-2-2---2---2-2-2---||
 |-0-0-0-0---0---0-0-0---|-0-0-0-0---0---0-0-0---||
 |-----------------------|-----------------------||

Chorus (key change)
[D]E E E S S S S E E S S [E]E E E S S S S E E S S [G]E E E S S S S E E S S
| | | | | | | | | | | | | | | | | | | | | | | | | | | | | | | | |
[/] [/] [/] [/] [/] [/] [/] [/] [/] [/] [/] [/] [/] [/] [/] [/] [/] [/] [/] [/] [/] [/] [/] [/] [/] [/] [/] [/] [/] [/] [/] [/] [/] 
H. E E H. Q H. +E S S
 
 ||-------------------------|------------------------|--------------------------|
 ||o-3----------------3-3---|------------------------|--------------------------|
 ||--2----------------2-2---|------------------------|--------------------------|
 ||--0----------------0-0---|-2----------------2-----|-5----------------(5)-5-5-|
 ||o------------------------|-2----------------2-----|-5----------------(5)-5-5-|
 ||-------------------------|-0----------------0-----|-3----------------(3)-3-3-|

1.,2.,3. 4.
[D]E E E S S S S E E S S [D]Q E. S E E S S S S
| | | | | | | | | | | | | | | | | | | |
[/] [/] [/] [/] [/] [/] [/] [/] [/] [/] [/] [/] [/] [/] [/] [/] [/] [/] [/] [/] 
Q E. S E E E E Q E. S E E S S S S
 
 |-------------------------||---------------------||
 |-3---3----3-3---3-3-3---o||-3--3--3-3-3-3-3-3-3-||
 |-2---2----2-2---2-2-2----||-2--2--2-2-2-2-2-2-2-||
 |-0---0----0-0---0-0-0----||-0--0--0-0-0-0-0-0-0-||
 |------------------------o||---------------------||
 |-------------------------||---------------------||

[D]E E E S S S S E E S S [E]E E E S S S S E E S S [G]E E E S S S S E E S S
| | | | | | | | | | | | | | | | | | | | | | | | | | | | | | | | |
[/] [/] [/] [/] [/] [/] [/] [/] [/] [/] [/] [/] [/] [/] [/] [/] [/] [/] [/] [/] [/] [/] [/] [/] [/] [/] [/] [/] [/] [/] [/] [/] [/] 
Q Q Q E E Q Q Q E E Q Q Q E E
 
 ||------------------------|-----------------------|-----------------------|
 ||o-3---3-----3-----3-3---|-----------------------|-----------------------|
 ||--2---2-----2-----2-2---|-----------------------|-----------------------|
 ||--0---0-----0-----0-0---|-2---2-----2-----2-2---|-5---5-----5-----5-5---|
 ||o-----------------------|-2---2-----2-----2-2---|-5---5-----5-----5-5---|
 ||------------------------|-0---0-----0-----0-0---|-3---3-----3-----3-3---|

1. 2.
[D]Q E. S E E S S S S [D]Q E. S E E S S S S
| | | | | | | | | | | | | | | | | |
[/] [/] [/] [/] [/] [/] [/] [/] [/] [/] [/] [/] [/] [/] [/] [/] [/] [/] 
W W
 
 |----------------------||---------------------||
 |-3-------------------o||-3-------------------||
 |-2--------------------||-2-------------------||
 |-0--------------------||-0-------------------||
 |---------------------o||---------------------||
 |----------------------||---------------------||

Out-Chorus
[D]E E E S S S S E E S S [E]E E E S S S S E E S S
| | | | | | | | | | | | | | | | | | | | | |
[/] [/] [/] [/] [/] [/] [/] [/] [/] [/] [/] [/] [/] [/] [/] [/] [/] [/] [/] [/] [/] [/] 
~~ ~~
Q S S S S +S S S S Q Q S S S S +S S S S Q
 
 ||-------------------------------|------------------------------|
 ||o------------------------------|------------------------------|
 ||------------7-(7)-----7-7\-----|-----------7-(7)-----7-7\-----|
 ||--------7-9-------7-9----------|-------7-9-------7-9----------|
 ||o------------------------------|------------------------------|
 ||-------------------------------|------------------------------|

1.,2.,3.
[G]E E E S S S S E E S S
| | | | | | | | | | |
[/] [/] [/] [/] [/] [/] [/] [/] [/] [/] [/]  
~~
Q S S S S +S S S S Q
 
 |------------------------------|
 |------------------------------|
 |-----------7-(7)-----7-7\-----|
 |-------7-9-------7-9----------|
 |------------------------------|
 |------------------------------|

[D] E E E S S S S E E S S
| | | | | | | | | | |
[/] [/] [/] [/] [/] [/] [/] [/] [/] [/] [/] 
~~
A +E A +E S S A +E +S S E Q
 
 |-------------------7-7------------------------------||
 |-------------------7-7-----------------------------o||
 |-9b11-(9)-9b11-(9)-----9b11==(9)r==(9)p7---7\-------||
 |-----------------------------------------9----------||
 |---------------------------------------------------o||
 |----------------------------------------------------||

4.
[G]E E E S S S S E E S S [D] E E E S S S S E E S S
| | | | | | | | | | | | | | | | | | | | | |
[/] [/] [/] [/] [/] [/] [/] [/] [/] [/] [/] [/] [/] [/] [/] [/] [/] [/] [/] [/] [/] [/] 
~~~~~~~~~~~~~
Q S S S S +S S S S Q +W
 
 |------------------------------|-------------------------||
 |------------------------------|-------------------------||
 |-----------7-(7)-----7-7\-----|-(7)---------------------||
 |-------7-9-------7-9----------|-------------------------||
 |------------------------------|-------------------------||
 |------------------------------|-------------------------||

Outro
[D]E E E S S S S E E S S [G] E E E S S S S E E S S
| | | | | | | | | | | | | | | | | | | | | |
[/] [/] [/] [/] [/] [/] [/] [/] [/] [/] [/] [/] [/] [/] [/] [/] [/] [/] [/] [/] [/] [/] 
~~ ~~
Q Q E Q E +E E Q E Q E
 
 ||--7-------------------7---|-(7)--------------------7---|
 ||o-----10-----10---7-------|-----10-10-----10-----------|
 ||--------------------------|--------------------7-------|
 ||--------------------------|----------------------------|
 ||o-------------------------|----------------------------|
 ||--------------------------|----------------------------|

[G] E E E S S S S E E S S
| | | | | | | | | | |
[/] [/] [/] [/] [/] [/] [/] [/] [/] [/] [/] 
~~~~~
+E E Q A +S +S S S E E
 
 |-(7)-----------------------------------|
 |-----10-10-----------------------------|
 |---------------9b11==(9)r(9)-7---7-7---|
 |-------------------------------9-------|
 |---------------------------------------|
 |---------------------------------------|

[D] E E E S S S S E E S S
| | | | | | | | | | |
[/] [/] [/] [/] [/] [/] [/] [/] [/] [/] [/] 
+E A +E E. S +S S E Q
 
 |-----------------------------------------||
 |--------------10------------------------o||
 |-(7)-9b11-(9)-(9)---9pb11r(9)-7---7------||
 |--------------------------------9--------||
 |----------------------------------------o||
 |-----------------------------------------||

Duration Legend
 
 ---------------
 W - whole; H - half; Q - quarter; E - 8th; S - 16th; T - 32nd; X - 64th; a - acciaccatura

+ - note tied to previous; . - note dotted; .. - note double dotted
Uncapitalized letters represent notes that are staccato (1/2 duration)
Irregular groupings are notated above the duration line
Duration letters will always appear directly above the note/fret number it represents the
duration for. Duration letters with no fret number below them represent rests. Multi-
bar rests are notated in the form Wxn, where n is the number of bars to rest for. Low
melody durations appear below the staff
Tablature Legend
 
 ----------------

h - hammer-on
p - pull-off
b - bend
pb - pre-bend
r - bend release (if no number after the r, then release immediately)
/\ - slide into or out of (from/to "nowhere")
s - legato slide
S - shift slide
- natural harmonic
(n) - artificial harmonic
n(n) - tapped harmonic
~ - vibrato
tr - trill
T - tap
TP - trem. picking
PM - palm muting
\n/ - tremolo bar dip; n = amount to dip
\n - tremolo bar down
n/ - tremolo bar up
/n\ - tremolo bar inverted dip
= - hold bend; also acts as connecting device for hammers/pulls
- volume swell (louder/softer)
x - on rhythm slash represents muted slash
o - on rhythm slash represents single note slash
Misc Legend
 
 -----------

| - bar
|| - double bar
||o - repeat start
o|| - repeat end
*| - double bar (ending)
: - bar (freetime)
$ - Segno
& - Coda
Tempo markers - = BPM(8/16=s8/s16), where s8 = swing 8ths, s16 = swing 16ths

Important: The song above is NOT stored on the Chordie server. The original song is hosted at www.guitartabs.cc. Chordie works as a search engine and provides on-the-fly formatting. Chordie does not index songs against artists'/composers' will. To remove this song please click here.

Text color:
Chord color:
Chord grids: 
Font size:    
Page size: 

A B B/F# Bb C C# D Dsus4 E E5 F F# Fadd9 G G#m G7
Rate #6 of 17 versions

Login - add to songbook

SHARE PAGE  



You need to log in to post comments