Guitar Tabs, Chords and Lyrics
Server problems seems to be fixed. Chordie has been experiencing problems with songs disappearing. These issues now seems to be fixed, but still verifying the fix. If you find anything strange, please email admin@chordie.com.


Don't Look Back in Anger  Oasis

E E E E E E E E E E Q E S S E E
 
 E||--------------------------|---------------------------|
 B||--1-----1-----1-----1-----|--1-----1---------------1--|
 G||--0-----0-----0-----0-----|--2-----2------------0-----|
 D||--2-----2-----2-----2-----|--3-----3-------2s-3-------|
 A||-----3-----3-----3-----3--|-----3-------3-------------|
 E||--------------------------|---------------------------|

E E E E E E E E E E E E S S S S E E
 
 --------------------------|-----------------------------|
 --1-----1-----1-----1-----|--1-----1--------------------|
 --0-----0-----0-----0-----|--2-----2--0--0-----------0--|
 --2-----2-----2-----2-----|--3-------------0-0s-2-0-----|
 -----3-----3-----3-----3--|-----3-----------------------|
 --------------------------|-----------------------------|

W
E E E S S E E E S S E E E S S E E E S S
 
 |---------0--0-0-------3--3-3-|--------0--0-0-------0--0-0-|
 |---------1--1-1-------0----0-|--------1--1-1-------0--0-0-|
 |*--------0--0-0-------0--0-0-|--------2--2-2-------1--1-1-|
 |*-----2--2--2-2----0--0--0-0-|-----2--2--2-2-------2--2-2-|
 |---3-------------------------|--0---------------2-----2-2-|
 |----------------3------------|-----------0---0----------0-|

E E E S S E E E S S E E E S S S S S S S S S S
 
 --------1--1-1--------3--3-3-|--------0--0-0------------------||
 --------1--1-1--------3--3-3-|--------1--1-1-1-1-1-0-0-0-0-0--||
 --------2--2-2--------4--4-4-|--------0--0-0-2-2-2-0-0-0-0-0-*||
 --------3--3-3--------5--5-5-|-----2--2--2-2-2-2-2-0-0-0-0-0-*||
 -----3-------------5---------|--3-----3------0-0-0---2-2-2-2--||
 --1------------/3------------|-----------------------3-3-3-3--||

E E Q E E Q E E Q S S E S S E E E Q E E Q
 
 --------1----------1----|-----------------------------|--------1----------1----|
 --------1----------1----|-----------------------------|--------1----------1----|
 --------2----------1----|-----5--5--------------------|--------2----------1----|
 ------------------------|-----7--5---------5----------|------------------------|
 -----3-------x--3-------|--3----------5S-7----7s-5-3--|-----3----------3-------|
 --1----------1----------|-----------------------------|--1----------1----------|

E E Q S S S S E E E E Q E E Q
 
 --------3--------------------|--------1----------1----|
 --------5---------4S-5-------|--------1----------1----|
 --------5----5---------5-----|--------2----------1----|
 -----5-------5h-7---------5--|------------------------|
 --3--------------------------|-----3----------3-------|
 -----------------------------|--1----------1----------|

E E Q S S E E S S E E E E E E E E
 
 --------------------8---------|--------------------------|
 ----------8---------8---------|--------------------------|
 ----------9----8s-9-------5---|--------------------------|
 ---------10-----------------5-|--5-----5-----5-----5-----|
 -----10-----------------------|--5-----5-----5-----5-----|
 --8---------------------------|--3--3-----3-----3-----3--|

[E] [E] [E] [E] [E] [E] [E] [E] [E] [E] [E] [E] [E] [E] [E] [E]  
 
 --------------------------|--------------------------|
 --------------------------|--------------------------|
 --------------------------|--------------------------|
 --6-----6-----6-----6-----|--7-----7-----5-----5-----|
 --5-----5-----5-----5-----|--7-----7-----5-----5-----|
 -----4-----4-----4-----4--|-----5-----5-----3-----3--|

E E E E E E E S S E E E E E E E E
 
 ----------------------------|--------------------------|
 ----------------------------|--------------------------|
 ----------------------------|--------------------------|
 --3-----3-----3-----3--3--5-|-----5--5--5--5--5--5--5--|
 --3-----3-----3-----3--3s-5-|-----5--5--5--5--5--5--5--|
 -----1-----1-----1----------|-----3--3--3--3--3--3--3--|

S S E E E E E S S E E E E S S E E E S S
 
 ---------------------------------|--------0--0-0-------3--3-3-|
 --------------7b-----5-----------|--------1--1-1-------0--0-0-|
 --5----5h---------------7p-5h-7--|--------0--0-0-------0--0-0-|
 --5h-7---------------------------|-----2--2--2-2----0--0--0-0-|
 ---------------------------------|--3-------------------------|
 ---------------------------------|---------------3------------|

E E E S S E E E S S E E E S S E E E S S
 
 --------0--0-0-------0--0-0-|--------1--1-1--------3--3-3-|
 --------1--1-1-------0--0-0-|--------1--1-1--------3--3-3-|
 --------2--2-2-------1--1-1-|--------2--2-2--------4--4-4-|
 --x--2--2--2-2-------2--2-2-|--------3--3-3--------5--5-4-|
 --0---------------2---------|-----3-------------5---------|
 ---------------0------------|--1------------/3------------|

E E E S S S S S S S S S S E E E S S E E E S S
 
 --------0----------------------|--------0--0-0-------3--3-3-|
 --------1------1-1-1-0-0-0-0-0-|--------1--1-1-------0--0-0-|
 --------0--0-0-2-2-2-0-0-0-0-0-|--------0--0-0-------0--0-0-|
 --x--2--2--0-0-2-2-2-0-0-0-0-0-|-----2--2--2-2----0--0--0-0-|
 --3--------------0-0---2-2-2-2-|--3-------------------------|
 -----------------------3-3-3---|---------------3------------|

E E E S S E E E S S E E E S S E E E S S
 
 --------0--0-0-------0--0-0-|--------1--1-1--------3--3-3-|
 --------1--1-1-------0--0-0-|--------1--1-1--------3--3-3-|
 --------0--0-x-------1--1-1-|--------2--2-2--------4--4-4-|
 -----2--2--2-2-------2--2-2-|--------3--3-3--------5--5-5-|
 --0---------------2---------|-----3-------------5---------|
 ---------------0------------|--1------------/3------------|

E E E S S E E E S S H S S S S S S S S
 
 ---------------------3--3-3-|---------------------------|
 --------1------------0--0-0-|---------------------------|
 --------0--0-0-------0--0-0-|-------------4-5-7-----5---|
 -----2--2--0-0----0-----0---|-----------7-------------7-|
 --3-------------------------|---------------------------|
 ---------------3------------|---------------------------|

H S E Q S H S S S S S S S S
 
 ------------------------|-----------------------------|
 -----------------8------|-----------------------------|
 --5--------5s-9-------9-|--5-------------5-7------5-7-|
 ------------------------|-----------5h-7-----5h-7-----|
 ------------------------|-----------------------------|
 ------------------------|-----------------------------|

W
E E E S S E E E S S E E E S S E E E S S
 
 |---------0--0-0-------3--3-3-|--------0--0-0-------0--0-0-|
 |---------1--1-1-------0----0-|--------1--1-1-------0--0-0-|
 |*--------0--0-0-------0--0-0-|--------2--2-2-------1--1-1-|
 |*-----2--2--2-2----0--0--0-0-|-----2--2--2-2-------2--2-2-|
 |---3-------------------------|--0---------------2-----2-2-|
 |----------------3------------|-----------0---0----------0-|

E E E S S E E E S S E E E S S S S S S S S S S
 
 --------1--1-1--------3--3-3-|--------0--0-0------------------||
 --------1--1-1--------3--3-3-|--------1--1-1-1-1-1-0-0-0-0-0--||
 --------2--2-2--------4--4-4-|--------0--0-0-2-2-2-0-0-0-0-0-*||
 --------3--3-3--------5--5-5-|-----2--2--2-2-2-2-2-0-0-0-0-0-*||
 -----3-------------5---------|--3-----3------0-0-0---2-2-2-2--||
 --1------------/3------------|-----------------------3-3-3-3--||

E E Q E E Q E E Q S S E S S E E E Q E E Q
 
 --------1----------1----|-----------------------------|--------1----------1----|
 --------1----------1----|-----------------------------|--------1----------1----|
 --------2----------1----|-----5--5--------------------|--------2----------1----|
 ------------------------|-----7--5---------5----------|------------------------|
 -----3-------x--3-------|--3----------5S-7----7s-5-3--|-----3----------3-------|
 --1----------1----------|-----------------------------|--1----------1----------|

E E Q S S S S E E E E Q E E Q
 
 --------3--------------------|--------1----------1----|
 --------5---------4S-5-------|--------1----------1----|
 --------5----5---------5-----|--------2----------1----|
 -----5-------5h-7---------5--|------------------------|
 --3--------------------------|-----3----------3-------|
 -----------------------------|--1----------1----------|

E E Q S S E E S S E E E E E E E E
 
 --------------------8---------|--------------------------|
 ----------8---------8---------|--------------------------|
 ----------9----8s-9-------5---|--------------------------|
 ---------10-----------------5-|--5-----5-----5-----5-----|
 -----10-----------------------|--5-----5-----5-----5-----|
 --8---------------------------|--3--3-----3-----3-----3--|

[E] [E] [E] [E] [E] [E] [E] [E] [E] [E] [E] [E] [E] [E] [E] [E]  
 
 --------------------------|--------------------------|
 --------------------------|--------------------------|
 --------------------------|--------------------------|
 --6-----6-----6-----6-----|--7-----7-----5-----5-----|
 --5-----5-----5-----5-----|--7-----7-----5-----5-----|
 -----4-----4-----4-----4--|-----5-----5-----3-----3--|

E E E E E E E S S E E E E E E E E
 
 ----------------------------|--------------------------|
 ----------------------------|--------------------------|
 ----------------------------|--------------------------|
 --3-----3-----3-----3--3--5-|-----5--5--5--5--5--5--5--|
 --3-----3-----3-----3--3s-5-|-----5--5--5--5--5--5--5--|
 -----1-----1-----1----------|-----3--3--3--3--3--3--3--|

S S E E E E E S S E E E E S S E E E S S
 
 ---------------------------------|--------0--0-0-------3--3-3-|
 --------------7b-----5-----------|--------1--1-1-------0--0-0-|
 --5----5h---------------7p-5h-7--|--------0--0-0-------0--0-0-|
 --5h-7---------------------------|-----2--2--2-2----0--0--0-0-|
 ---------------------------------|--3-------------------------|
 ---------------------------------|---------------3------------|

E E E S S E E E S S E E E S S E E E S S
 
 --------0--0-0-------0--0-0-|--------1--1-1--------3--3-3-|
 --------1--1-1-------0--0-0-|--------1--1-1--------3--3-3-|
 --------2--2-2-------1--1-1-|--------2--2-2--------4--4-4-|
 --x--2--2--2-2-------2--2-2-|--------3--3-3--------5--5-4-|
 --0---------------2---------|-----3-------------5---------|
 ---------------0------------|--1------------/3------------|

E E E S S S S S S S S S S E E E S S E E E S S
 
 --------0----------------------|--------0--0-0-------3--3-3-|
 --------1------1-1-1-0-0-0-0-0-|--------1--1-1-------0--0-0-|
 --------0--0-0-2-2-2-0-0-0-0-0-|--------0--0-0-------0--0-0-|
 --x--2--2--0-0-2-2-2-0-0-0-0-0-|-----2--2--2-2----0--0--0-0-|
 --3--------------0-0---2-2-2-2-|--3-------------------------|
 -----------------------3-3-3---|---------------3------------|

E E E S S E E E S S E E E S S E E E S S
 
 --------0--0-0-------0--0-0-|--------1--1-1--------3--3-3-|
 --------1--1-1-------0--0-0-|--------1--1-1--------3--3-3-|
 --------0--0-x-------1--1-1-|--------2--2-2--------4--4-4-|
 -----2--2--2-2-------2--2-2-|--------3--3-3--------5--5-5-|
 --0---------------2---------|-----3-------------5---------|
 ---------------0------------|--1------------/3------------|

E E E S S E E E S S E E E S S S S S S E. S
 
 ---------------------3--3-3-|-----------------------------|
 --------1------------0--0-0-|--------1------1-1-1-0-0-----|
 --------0--0-0-------0--0-0-|--------0--0-0-2-2-2-0-0---5-|
 -----2--2--0-0----0-----0---|-----2--2--0-0-2-2-2-0-0-----|
 --3-------------------------|--3--------------------2-----|
 ---------------3------------|-----------------------3-----|

Q Q Q E E E S S S S S S S S S S E S S
 
 --------------------------|----------------------------------|
 --------------------------|----------------------------------|
 --7b----7b----7b----5-----|----------5-5----5---5-5------7-5-|
 -----------------------5--|-----5h-7---5h-7---------7-7------|
 --------------------------|----------------------------------|
 --------------------------|----------------------------------|

Q Q Q E E E S S S E S S S S S Q
 
 --------------------------|--------------------------------|
 --------------------------|--------------------------------|
 --7b----7b----7b----5-----|--L--5--5-5---------------------|
 -----------------------5--|-----5h-7-5---------5-----------|
 --------------------------|------------7--5s-7---7-5-3~----|
 --------------------------|--------------------------------|

S S S S S S S S S S S S S S S S S S E E S S S S S S Q
 
 ----------------------------------------|----------------8-L-8-8-10-8----|
 ----------------------------------------|-------8--8--10-----------------|
 -----------------5-L-5-7br-(7)p-5---5-5-|--7s-9--------------------------|
 -------------5-7------------------7-----|--------------------------------|
 ------3-5s-7----------------------------|--------------------------------|
 --1-5-----------------------------------|--------------------------------|

S S S S S S S S S S S S S S E
 
 --------8-------8-------8-------8-------8--|
 --8h-10---8h-10---8s-10---8h-10---8h-10----|
 -------------------------------------------|
 -------------------------------------------|
 -------------------------------------------|
 -------------------------------------------|

S S S S S S S S S S S S E S S H Q E E
 
 --8h-10p-8-------8------8-------8-8\--0-0-|------------------------|
 -----------8h-10---8-10---8h-10---8-------|----------------17--17--|
 ------------------------------------------|------------------------|
 ------------------------------------------|------------------------|
 ------------------------------------------|------------------------|
 ------------------------------------------|------------------------|

S S S S E. S Q E E W W
 
 ----------------------------17------|-------------------|-------------------|
 --17b---------------------------17--|-------------------|-------------------|
 --------17-19-17---19-19------------|-------------------|-------------------|
 ------------------------------------|-------------------|-------------------|
 ------------------------------------|-------------------|-------------------|
 ------------------------------------|-------------------|-------------------|

E E E S S E E E S S E E E S S E E E S S
 
 --------0--0-0-------3--3-3-|--------0--0-0-------0--0-0-|
 --------1--1-1-------0--0-0-|--------1--1-1-------0--0-0-|
 --------0--0-0-------0--0-0-|--------2--2-2-------1--1-1-|
 -----2--2--2-2----0--0--0-0-|--x--2--2--2-2-------2--2-2-|
 --3-------------------------|--0---------------2---------|
 ---------------3------------|---------------0------------|

E E E S S E E E S S E E E S S S S S S S S S S
 
 --------1--1-1--------3--3-3-|--------0----------------------|
 --------1--1-1--------3--3-3-|--------1------1-1-1-0-0-0-0-0-|
 --------2--2-2--------4--4-4-|--------0--0-0-2-2-2-0-0-0-0-0-|
 --------3--3-3--------5--5-4-|--x--2--2--0-0-2-2-2-0-0-0-0-0-|
 -----3-------------5---------|--3--------------0-0---2-2-2-2-|
 --1------------/3------------|-----------------------3-3-3---|

[Am]W [F]W [Fm]W
 
 --0-----------------|--5-----------------|--4----------------|
 --1-----------------|--1-----------------|-------------------|
 --2~----------------|--2~----------------|--5----------------|
 --2-----------------|--------------------|--3----------------|
 --0-----------------|--------------------|-------------------|
 --------------------|--1-----------------|--1----------------|

W S S S S S S S S S S E S S S S
 
 --L----------------|--------------------------------------|
 -------------------|------------------7-------------------|
 --L----------------|-------------5h-7-7---5---5--7p-5-----|
 --L----------------|--------5h-7------------7-------------|
 --L----------------|--5h-7h-------------------------------|
 --L----------------|--------------------------------------|

E E E E E S S Q H S S E E E [C]W
 
 --------------------------|-------------------------|--0----------------|
 --------------------------|-------------------------|--1----------------|
 --7-----7--5--5--5-7-5----|-------------------------|--0----------------|
 --------------------------|----------------5--L-----|--2----------------|
 --------------------------|-----------5s-7-------7--|--3----------------|
 --------------------------|-------------------------|-------------------|

H Q E E S S S S E. S Q E E
 
 ------------------------|----------------------------17------|
 ----------------17--17--|--17b---------------------------17--|
 ------------------------|--------17-19-17---19-19------------|
 ------------------------|------------------------------------|
 ------------------------|------------------------------------|
 ------------------------|------------------------------------|

W W E E E S S E E E S S
 
 -------------------|-------------------|--------0--0-0-------3--3-3-|
 -------------------|-------------------|--------1--1-1-------0--0-0-|
 -------------------|-------------------|--------0--0-0-------0--0-0-|
 -------------------|-------------------|-----2--2--2-2----0--0--0-0-|
 -------------------|-------------------|--3-------------------------|
 -------------------|-------------------|---------------3------------|

E E E S S E E E S S E E E S S E E E S S
 
 --------0--0-0-------0--0-0-|--------1--1-1--------3--3-3-|
 --------1--1-1-------0--0-0-|--------1--1-1--------3--3-3-|
 --------2--2-2-------1--1-1-|--------2--2-2--------4--4-4-|
 --x--2--2--2-2-------2--2-2-|--------3--3-3--------5--5-4-|
 --0---------------2---------|-----3-------------5---------|
 ---------------0------------|--1------------/3------------|

E E E S S S S S S S S S S [Am]W [F]W
 
 --------0----------------------|--0-----------------|--5-----------------|
 --------1------1-1-1-0-0-0-0-0-|--1-----------------|--1-----------------|
 --------0--0-0-2-2-2-0-0-0-0-0-|--2~----------------|--2~----------------|
 --x--2--2--0-0-2-2-2-0-0-0-0-0-|--2-----------------|--------------------|
 --3--------------0-0---2-2-2-2-|--0-----------------|--------------------|
 -----------------------3-3-3---|--------------------|--1-----------------|

[Fm]W W S S S S S S S S S S E S S S S
 
 --4----------------|--L----------------|--------------------------------------|
 -------------------|-------------------|------------------7-------------------|
 --5----------------|--L----------------|-------------5h-7-7---5---5--7p-5-----|
 --3----------------|--L----------------|--------5h-7------------7-------------|
 -------------------|--L----------------|--5h-7h-------------------------------|
 --1----------------|--L----------------|--------------------------------------|

E E E E E S S Q H S S E E E [C]W
 
 --------------------------|-------------------------|--0----------------||
 --------------------------|-------------------------|--1----------------||
 --7-----7--5--5--5-7-5----|-------------------------|--0----------------||
 --------------------------|----------------5--L-----|--2----------------||
 --------------------------|-----------5s-7-------7--|--3----------------||
 --------------------------|-------------------------|-------------------||

Duration Legend
 
 ---------------

W - whole
H - half
Q - quarter
E - 8th
S - 16th
T - 32nd
X - 64th
. - note dotted
|-n-| - n-tuplets
Tablature Legend
 
 ----------------

L - tied note
x - dead note
g - grace note
(n) - ghost note
> - accentuded note
NH - natural harmonic
AH - artificial harmonic
TH - tapped harmonic
SH - semi harmonic
PH - pitch harmonic
h - hammer on
p - pull off
b - bend
br - bendRelease
pb - preBend
pbr - preBendRelease
brb - bendReleaseBend
\n/ - tremolo bar dip
\n - tremolo bar dive
-/n - tremolo bar Release up
/n\ - tremolo bar inverted dip
/n - tremolo bar return
-\n - tremolo bar Release down
S - shift slide
s - legato slide
/ - slide into from below or out of upwards
\ - slide into from above or out of downwards
~ - vibrato
W - wide vibrato
tr - trill
TP - tremolo picking
T - tapping
S - slap
P - pop
< - fade in
^ - brush up
v - brush down

Important: The song above is NOT stored on the Chordie server. The original song is hosted at www.guitartabs.cc. Chordie works as a search engine and provides on-the-fly formatting. Chordie does not index songs against artists'/composers' will. To remove this song please click here.

Text color:
Chord color:
Chord grids: 
Font size:    
Page size: 

Am C E F Fm
Rate #14 of 14 versions

Login - add to songbook

SHARE PAGE  



You need to log in to post comments