Guitar Tabs, Chords and Lyrics
Server problems seems to be fixed. Chordie has been experiencing problems with songs disappearing. These issues now seems to be fixed, but still verifying the fix. If you find anything strange, please email admin@chordie.com.


Don't Look Back in Anger  Oasis

DON'T LOOK BACK IN ANGER
As recorded by Oasis
(From the 1995 Album (WHAT'S THE STORY) MORNING GLORY)
Transcribed by Clotho
Words and Music by Noel Gallagher
[C]x 3 2 0 1 0
[F]  
[1] [3] [3] [2] [1] [1]  
[G]3 2 0 0 0 3
[Am]x 0 2 2 1 0
[E]0 2 2 1 0 0
[Fm]  
[1] [3] [3] [1] [1] [1]  
[Ab+]4 5 6 x x x
Gtr I (E A D G B E) - 'Untitled'
Gtr II (E A D G B E) - 'Untitled'
Gtr III (E A D G B E) - 'Untitled'
Intro
Q=84
[C] [F]  
[4/4] Gtr II
[E] [E] [E] [E] [E] [E] [E] [E] [E] [E] [E] [E] [E] [E] [E] [E]  
 
 |-----------------|-------------------|
 |-1---1---1---1---|-1---1---1-----1---|
 |-0---0---0---0---|-2---2---2-----2---|
 |-2---2---2---2---|-3---3---3-----3---|
 |---3---3---3---3-|---3---3---3-----3-|
 |-----------------|-------------------|

|
| Gtr I
| W H E S S E E
 
 |-----------------|-------------------|
 |-----------------|-----------------1-|
 |-----------------|---------------0---|
 |-----------------|-----------2h3-----|
 |-----------------|---------3---------|
 |-----------------|-------------------|

[C] [F]  
[E] [E] [E] [E] [E] [E] [E] [E] [E] [E] [E] [E] [E] [E] [E] [E]  
 
 |-------------------|-------------------------||
 |--1----1---1---1---|-1-----1----1--------1---||
 |--0----0---0---0---|-2-----2----2--------2---||
 |--2----2---2---2---|-3-----3----3--------3---||
 |-----3---3---3---3-|---3-----3-------3-----3-||
 |-------------------|-------------------------||

|
| +W Q a E E +S S S S E E
 
 |-------------------|-------------------------||
 |-(1)---------------|-------1-----------------||
 |-------------------|-----0-2-0-(0)---------0-||
 |-------------------|---------------0-0h2-0---||
 |-------------------|-------------------------||
 |-------------------|-------------------------||

Verse
[C]Gtr III[G] [Am] [E]
E E E S S E E E S S E E E S S E E E S S
| | | | | | | | | | | | | | | | | | | |
[/] [/] [/] [/] [/] [/] [/] [/] [/] [/] [/] [/] [/] [/] [/] [/] [/] [/] [/] [/] 
Gtr I
E E E S S E E E S S E E E S S E E E S S
 
 ||------0-0-0-----3-3-3-|-----0-0-0-----0-0-0-|
 ||o-----1-1-1-----0-0-0-|-----1-1-1-----0-0-0-|
 ||------0-0-0-----0-0-0-|-----2-2-2-----1-1-1-|
 ||----2-2-2-2---0-0-0-0-|---2-2-2-2-----2-2-2-|
 ||o-3-------------------|-0-----------2-------|
 ||------------3---------|-----------0---------|

[F]E E E S S [G] E E E S S [C]E E E S S [Am]S S S [G]S S S S S
| | | | | | | | | | | | | | | | | | | | | | |
[/] [/] [/] [/] [/] [/] [/] [/] [/] [/] [/] [/] [/] [/] [/] [/] [/] [/] [/] [/] [/] [/] [/] 
E E E S S E E E S S E E E S S S S S S S S S S
 
 |-----1-1-1------3-3-3-|-----0---------------------|
 |-----1-1-1------3-3-3-|-----1-----1-1-1-0-0-0-0-0-|
 |-----2-2-2------4-4-4-|-----0-0-0-2-2-2-0-0-0-0-0-|
 |-----3-3-3------5-5-5-|---2-2-0-0-2-2-2-0-0-0-0-0-|
 |---3----------5-------|-3---------0-0-0---2-2-2-2-|
 |-1---------/3---------|-------------------3-3-3-0-|

[C]E E E S S [G]E E E S S [Am]E E E S S [E]E E E S S
| | | | | | | | | | | | | | | | | | | |
[/] [/] [/] [/] [/] [/] [/] [/] [/] [/] [/] [/] [/] [/] [/] [/] [/] [/] [/] [/] 
E E E S S E E E S S E E E S S E E E S S
 
 |-----0-0-0-----3-3-3-|-----0-0-0-----0-0-0-|
 |-----1-1-1-----0-0-0-|-----1-1-1-----0-0-0-|
 |-----0-0-0-----0-0-0-|-----2-2-2-----1-1-1-|
 |---2-2-2-2---0-0-0-0-|---2-2-2-2-----2-2-2-|
 |-3-------------------|-0-----------2-------|
 |-----------3---------|-----------0---------|

[F]E E E S S [G] E E E S S [C]E E E S S [Am]S S S S [G]S S S S
| | | | | | | | | | | | | | | | | | | | | | |
[/] [/] [/] [/] [/] [/] [/] [/] [/] [/] [/] [/] [/] [/] [/] [/] [/] [/] [/] [/] [/] [/] [/] 
E E E S S E E E S S E E E S S S S S S S S S S
 
 |-----1----------------|-----0---------------------||
 |---1---1--------3-3-3-|-----1-----1-1-1-0-0-0-0-0-||
 |---2-----2------4-4-4-|-----0-0-0-2-2-2-0-0-0-0-0-||
 |---3------------5-5-5-|---2-2-0-0-2-2-2-0-0-0-0-0-||
 |--------------5-------|-3---------0-0-0---2-2-2-2-||
 |-1---------/3---------|-------------------3-3-3-3-||

[F]E E E S [Fm]S E E E S S [C]E E E S S E E E S S [F]E E E S S [Fm]E E E S S
| | | | | | | | | | | | | | | | | | | | | | | | | | | | | |
[/] [/] [/] [/] [/] [/] [/] [/] [/] [/] [/] [/] [/] [/] [/] [/] [/] [/] [/] [/] [/] [/] [/] [/] [/] [/] [/] [/] [/] [/] 
E E Q E E Q E A E Q S S E S S E E E Q E E Q
 
 |-----1---------1-----|---------------------------|-----1---------1-----|
 |-----1---------1-----|---------------------------|-----1---------1-----|
 |-----2---------1-----|-----5-5-------------------|-----2---------1-----|
 |---------------------|---5h7-5---------5---------|---------------------|
 |---3---------3-------|-3-----------5s7---7s5-3---|---3---------3-------|
 |-1---------1---------|---------------------------|-1---------1---------|

[C]E E E S S E E E S S [F]E E E S [Fm]S E E E S S [C]E E E S S E E E S S
| | | | | | | | | | | | | | | | | | | | | | | | | | | | | |
[/] [/] [/] [/] [/] [/] [/] [/] [/] [/] [/] [/] [/] [/] [/] [/] [/] [/] [/] [/] [/] [/] [/] [/] [/] [/] [/] [/] [/] [/] 
E E Q S S S S E E E E Q E E Q E E E S S S S E +E S S
 
 |-----3-------------------|-----1---------1-----|------------------8-(8)\-----|
 |-----5---------4s5-------|-----1---------1-----|-------8----------8-(8)\-----|
 |-----5-----5-------5-----|-----2---------1-----|-------9------8s9--------5---|
 |---5-------5h7-------5---|---------------------|------10---10--------------5-|
 |-3-----------------------|---3---------3-------|---10------------------------|
 |-------------------------|-1---------1---------|-8---------------------------|

[G]E E E S S E E E S S [Ab+]E E E S S E E E S S [Am]E E E S [G]S E E E S S
| | | | | | | | | | | | | | | | | | | | | | | | | | | | | |
[/] [/] [/] [/] [/] [/] [/] [/] [/] [/] [/] [/] [/] [/] [/] [/] [/] [/] [/] [/] [/] [/] [/] [/] [/] [/] [/] [/] [/] [/] 
[E] [E] [E] [E] [E] [E] [E] [E] [E] [E] [E] [E] [E] [E] [E] [E] [E] [E] [E] [E] [E] [E] [E] [E]  
 
 |---------------------|---------------------|---------------------|
 |---------------------|---------------------|---------------------|
 |---------------------|---------------------|---------------------|
 |-5---5-----5---5-----|-6---6-----6---6-----|-7---7-----5---5-----|
 |-5---5-----5---5-----|-5---5-----5---5-----|-7---7-----5---5-----|
 |-3-3---3-----3---3---|---4---4-----4---4---|---5---5-----3---3---|

[F]E E E S S E E E S S [G] E E E S S E E E S S
| | | | | | | | | | | | | | | | | | | |
[/] [/] [/] [/] [/] [/] [/] [/] [/] [/] [/] [/] [/] [/] [/] [/] [/] [/] [/] [/] 
E E E E E E E S S E E E E E E E E
 
 |---------------------|-----------------------|
 |---------------------|-----------------------|
 |---------------------|-----------------------|
 |-3---3-----3---3-3s5-|-(5)-5-5-5---5-5-5-5---|
 |-3---3-----3---3-3s5-|-(5)-5-5-5---5-5-5-5---|
 |---1---1-----1-------|--3--3-3-3---3-3-3-3---|

E E E S S E E E S S
| | | | | | | | | |
[/] [/] [/] [/] [/] [/] [/] [/] [/] [/]  
S S E +E E +E E S S E
 
 |--------------------------------||
 |---------------------5----------||
 |-5---5-(5)-7b9---(7)---7p5-7----||
 |-5h7----------------------------||
 |--------------------------------||
 |--------------------------------||

Chorus
$
[C]E E E S S [G]E E E S S [Am]E E E S S [E]E E E S S [F]E E E S S [G] E E E S S
| | | | | | | | | | | | | | | | | | | | | | | | | | | | | |
[/] [/] [/] [/] [/] [/] [/] [/] [/] [/] [/] [/] [/] [/] [/] [/] [/] [/] [/] [/] [/] [/] [/] [/] [/] [/] [/] [/] [/] [/] 
E E E S S E E E S S E E E S S E E E S S E E E S S E E E S S
 
 |-----0-0-0-----3-3-3-|-----0-0-0-----0-0-0-|-----1-1-1------3-3-3-|
 |-----1-1-1-----0-0-0-|-----1-1-1-----0-0-0-|-----1-1-1------3-3-3-|
 |-----0-0-0-----0-0-0-|-----2-2-2-----1-1-1-|-----2-2-2------4-4-4-|
 |---2-2-2-2---0-0-0-0-|---2-----------2-2-2-|-----3-3-3------5-5-5-|
 |-3-------------------|-0-----------2-------|---3----------5-------|
 |-----------3---------|-----------0---------|-1---------/3---------|

[C]E E E S S [Am]S S S S [G]S S S S [C]E E E S S [G]E E E S S
| | | | | | | | | | | | | | | | | | | | | | |
[/] [/] [/] [/] [/] [/] [/] [/] [/] [/] [/] [/] [/] [/] [/] [/] [/] [/] [/] [/] [/] [/] [/] 
E E E S S S S S S S S S S E E E S S E E E S S
 
 |-----0---------------------|-----0-0-0-----3-3-3-|
 |-----1-----1-1-1-0-0-0-0-0-|-----1-1-1-----0-0-0-|
 |-----0-0-0-2-2-2-0-0-0-0-0-|-----0-0-0-----0-0-0-|
 |---2-2-0-0-2-2-2-0-0-0-0-0-|---2-2-2-2---0-0-0-0-|
 |-3---------0-0-0---2-2-2-2-|-3-------------------|
 |-------------------3-3-3-3-|-----------3---------|

To Coda
[Am]E E E S S [E]E E E S S [F]E E E S S [G] E E E S S
| | | | | | | | | | | | | | | | | | | |
[/] [/] [/] [/] [/] [/] [/] [/] [/] [/] [/] [/] [/] [/] [/] [/] [/] [/] [/] [/] 
E E E S S E E E S S E E E S S E E E S S
 
 |-----0-0-0-----0-0-0-|-----1-1-1------3-3-3-|
 |-----1-1-1-----0-0-0-|-----1-1-1------3-3-3-|
 |-----2-2-2-----1-1-1-|-----2-2-2------4-4-4-|
 |---2-----------2-2-2-|-----3-3-3------5-5-5-|
 |-0-----------2-------|---3----------5-------|
 |-----------0---------|-1---------/3---------|

1.
[C]E E E S S [G]E E E S S [Am]E E E S S [E]E E E S S
| | | | | | | | | | | | | | | | | | | |
[/] [/] [/] [/] [/] [/] [/] [/] [/] [/] [/] [/] [/] [/] [/] [/] [/] [/] [/] [/] 
E E E S S E E E S S H S S S S a +S +S S S
 
 |-----0-0-0-----3-3-3-|----------------------------------------|
 |-----1-1-1-----0-0-0-|----------------------------------------|
 |-----0-0-0-----0-0-0-|-------------4-5-7b7.5==(7)-(7)r(7)-5---|
 |---2-2-2-2---0-0-0-0-|-----------7--------------------------7-|
 |-3-------------------|----------------------------------------|
 |-----------3---------|----------------------------------------|

[F]E E E S S [G]E E E S S
| | | | | | | | | |
[/] [/] [/] [/] [/] [/] [/] [/] [/] [/]  
Q.. S E Q S S
 
 |------------------------|
 |---------------8--------|
 |-5---------5s9-----9s7--|
 |------------------------|
 |------------------------|
 |------------------------|

2.
[C]E E E S S [Am]S S S S [G]S S S S [C]E E E S S [Am]S S S S [E]S S S S
| | | | | | | | | | | | | | | | | | | | | | | | | |
[/] [/] [/] [/] [/] [/] [/] [/] [/] [/] [/] [/] [/] [/] [/] [/] [/] [/] [/] [/] [/] [/] [/] [/] [/] [/] 
H S S S S S S S S E E E S S S S S S E. S
 
 |----------------------------||------0----------------------||
 |---------------------------o||------1-----1-1-1-0-0--------||
 |-5-------------5-7-----5-7--||------0-0-0-2-2-2-0-0------5-||
 |-----------5h7-----5h7------||----2-2-0-0-2-2-2-0-0--------||
 |---------------------------o||--3---------0-0-0---2--------||
 |----------------------------||--------------------3--------||

Guitar Solo
[F]E E E S S [Fm]E E E S S
| | | | | | | | | |
[/] [/] [/] [/] [/] [/] [/] [/] [/] [/] 
S +S +E S +S +E S +S +E E E
 
 |------------------------------------------------|
 |------------------------------------------------|
 |-7b8==(7)r(7)-7b8==(7)r(7)---7b8==(7)r(7)-5-----|
 |--------------------------------------------5---|
 |------------------------------------------------|
 |------------------------------------------------|

[C] E E E S S E E E S S
| | | | | | | | | |
[/] [/] [/] [/] [/] [/] [/] [/] [/] [/] 
+E S S S S S S a +S S S S E S S
 
 |-------------------------------------|
 |-------------------------------------|
 |---------5-5---5-7b9-(7)-5-5-----7-5-|
 |-(5)-5h7---5h7---------------7-7-----|
 |-------------------------------------|
 |-------------------------------------|

[F]E E E S S [Fm]E E E S S
| | | | | | | | | |
[/] [/] [/] [/] [/] [/] [/] [/] [/] [/] 
S +S +E S +S +E S +S +E E E
 
 |------------------------------------------------|
 |------------------------------------------------|
 |-7b8==(7)r(7)-7b8==(7)r(7)---7b8==(7)r(7)-5-----|
 |--------------------------------------------5---|
 |------------------------------------------------|
 |------------------------------------------------|

[C] E E E S S E E E S S
| | | | | | | | | |
[/] [/] [/] [/] [/] [/] [/] [/] [/] [/]  
+E S S S E S S S S S Q
 
 |----------------------------------|
 |----------------------------------|
 |-----5-(5)-5----------------------|
 |-(5)-5h=7--5----------5-----------|
 |-------------h7---5s7---7s5-3-----|
 |----------------------------------|

[F]E E E S S [Fm] E E E S S [C]E E E S S E E E S S
| | | | | | | | | | | | | | | | | | | |
[/] [/] [/] [/] [/] [/] [/] [/] [/] [/] [/] [/] [/] [/] [/] [/] [/] [/] [/] [/] 
S S S S S S S S +S S S +S +S S S S S S E E S S +S S S S Q
 
 |------------------------------------------|------------8-(8)-8-8h10-8-----|
 |------------------------------------------|-----8-8-10--------------------|
 |---------------5-(5)-5-7b8==(7)r(7)p5---5-|-7s9---------------------------|
 |-----------5-7------------------------7---|-------------------------------|
 |-----3-5s7--------------------------------|-------------------------------|
 |-1-5--------------------------------------|-------------------------------|

[G]E E E S S E E E S S [Ab+]E E E S S E E E S S
| | | | | | | | | | | | | | | | | | | |
[/] [/] [/] [/] [/] [/] [/] [/] [/] [/] [/] [/] [/] [/] [/] [/] [/] [/] [/] [/] 
S S S S S S S S S S S S S S E S S S S S S S S S S S S E S S
 
 |------8------8------8------8------8---|-8h10p8------8------8------8-8\-0-0-|
 |-8h10---8h10---8h10---8h10---8h10-----|--------8h10---8h10---8h10---8\-----|
 |--------------------------------------|------------------------------------|
 |--------------------------------------|------------------------------------|
 |--------------------------------------|------------------------------------|
 |--------------------------------------|------------------------------------|

[Am] E E E S S [G] E E E S S
| | | | | | | | | |
[/] [/] [/] [/] [/] [/] [/] [/] [/] [/] 
A E A E A E A E A E S S A E S S
 
 |---------------------------------------------------------------------------------|
 |--------17---------17---------17---------17-----------17--17-17--------17--17-17-|
 |-19b21-(19)-19b21-(19)-19b21-(19)-19b21-(19)---19b21-(19)-------19b21-(19)-------|
 |---------------------------------------------------------------------------------|
 |---------------------------------------------------------------------------------|
 |---------------------------------------------------------------------------------|

[F] E E E S S E E E S S
| | | | | | | | | |
[/] [/] [/] [/] [/] [/] [/] [/] [/] [/] 
a +S +S S S E. S +S S e a +S S a +S S
 
 |-----------------------------------------17--------------------------------|
 |----------------------------------------------------------17------------17-|
 |-19b21==(19)r(19)-17-19-17----19b21-(19)----19-19b21-(19)----19b21-(19)----|
 |---------------------------------------------------------------------------|
 |---------------------------------------------------------------------------|
 |---------------------------------------------------------------------------|

D.S. al C
[G] E E E S S E E E S S
| | | | | | | | | |
[/] [/] [/] [/] [/] [/] [/] [/] [/] [/] 
a S S S a S S S a S S S a S S S a S S S S
 
 |------------------------------------------------------------------------------------------|
 |--------17--17-17--------17--17-17--------17--17-17--------17--17-17--------17--17-17-17\-|
 |-19b21-(19)-------19b21-(19)-------19b21-(19)-------19b21-(19)-------19b21-(19)-----------|
 |------------------------------------------------------------------------------------------|
 |------------------------------------------------------------------------------------------|
 |------------------------------------------------------------------------------------------|

oda
W
W
 
 |-------||
 |-------||
 |-------||
 |-------||
 |-------||
 |-------||

&
[C]E E E S S [Am]S S S S [G]S S S S [C]E E E S S [G]E E E S S
| | | | | | | | | | | | | | | | | | | | | | |
[/] [/] [/] [/] [/] [/] [/] [/] [/] [/] [/] [/] [/] [/] [/] [/] [/] [/] [/] [/] [/] [/] [/] 
E E E S S S S S S S S S S E E E S S E E E S S
 
 |-----0---------------------||-----0-0-0-----3-3-3-|
 |-----1-----1-1-1-0-0-0-0-0-||-----1-1-1-----0-0-0-|
 |-----0-0-0-2-2-2-0-0-0-0-0-||-----0-0-0-----0-0-0-|
 |---2-2-0-0-2-2-2-0-0-0-0-0-||---2-2-2-2---0-0-0-0-|
 |-3---------0-0-0---2-2-2-2-||-3-------------------|
 |-------------------3-3-3-3-||-----------3---------|

[Am]E E E S S [E]E E E S S [F]E E E S S [G] E E E S S
| | | | | | | | | | | | | | | | | | | |
[/] [/] [/] [/] [/] [/] [/] [/] [/] [/] [/] [/] [/] [/] [/] [/] [/] [/] [/] [/] 
E E E S S E E E S S E E E S S E E E S S
 
 |-----0-0-0-----0-0-0-|-----1-1-1------3-3-3-|
 |-----1-1-1-----0-0-0-|-----1-1-1------3-3-3-|
 |-----2-2-2-----1-1-1-|-----2-2-2------4-4-4-|
 |---2-----------2-2-2-|-----3-3-3------5-5-5-|
 |-0-----------2-------|---3----------5-------|
 |-----------0---------|-1---------/3---------|

[C]E E E S S [Am]S S S S [G]S S S S [C]E E E S S [G]E E E S S
| | | | | | | | | | | | | | | | | | | | | | |
[/] [/] [/] [/] [/] [/] [/] [/] [/] [/] [/] [/] [/] [/] [/] [/] [/] [/] [/] [/] [/] [/] [/] 
E E E S S S S S S S S S S E E E S S E E E S S
 
 |-----0-------------3-3-3-3-|-----0-0-0-----3-3-3-|
 |-----1-----1-1-1-0-0-0-0-0-|-----1-1-1-----0-0-0-|
 |-----0-0-0-2-2-2-0-0-0-0-0-|-----0-0-0-----0-0-0-|
 |---2-2-0-0-2-2-2-0-0-0-0-0-|---2-2-2-2---0-0-0-0-|
 |-3---------0-0-0---2-2-2-2-|-3-------------------|
 |-------------------3-3-3-3-|-----------3---------|

[Am] W [F] W [Fm] W
| | |
[/] [/] [/]  
W W W
 
 |-^0--------|-^1--------|-^1----|
 |-^1--------|-^1--------|-^1----|
 |-^2--------|-^2--------|-^1----|
 |-^2--------|-^3--------|-^3----|
 |-^0--------|-----------|-------|
 |-----------|-----------|-------|

+W [C]E E E S S [G] E E E S S
| | | | | | | | | | |
[/] [/] [/] [/] [/] [/] [/] [/] [/] [/] [/] 
+W E S S S S S S a +S +S S S E S S
 
 |-^(1)--------|--------------------------------------|
 |-^(1)--------|--------------------------------------|
 |-^(1)--------|-----------5-7-7b8==(7)r(7)-5---5-7-5-|
 |-^(3)--------|-------5h7--------------------7-------|
 |-------------|---5h7--------------------------------|
 |-------------|--------------------------------------|

H.=H Q=54
[Am]E E E S S [E] E E E S S [F]E E E E [Fm]E E E E [C] W
| | | | | | | | | | | | | | | | | | |
[/] [/] [/] [/] [/] [/] [/] [/] [/] [/] [/] [/] [/] [/] [/] [/] [/] [/] [/] 
E +E E E +E S S Q E Q S S S S E +E E W
 
 |-----------------------------|------------------------|-^0---------*|
 |-----------------------------|------------------------|-^1---------*|
 |-7b9-(7)-7-5---(5)-5h7-5-----|------------------------|-^0---------*|
 |-----------------------------|-7-5-----------5-(5)----|-^2---------*|
 |-----------------------------|-------3h5-5s7-------7\-|-^3---------*|
 |-----------------------------|------------------------|------------*|

Duration Legend
 
 ---------------
 W - whole; H - half; Q - quarter; E - 8th; S - 16th; T - 32nd; X - 64th; a - acciaccatura

+ - note tied to previous; . - note dotted; .. - note double dotted
Uncapitalized letters represent notes that are staccato (1/2 duration)
Irregular groupings are notated above the duration line
Duration letters will always appear directly above the note/fret number it represents the
duration for. Duration letters with no fret number below them represent rests. Multi-
bar rests are notated in the form Wxn, where n is the number of bars to rest for. Low
melody durations appear below the staff
Tablature Legend
 
 ----------------

h - hammer-on
p - pull-off
b - bend
pb - pre-bend
r - bend release (if no number after the r, then release immediately)
/\ - slide into or out of (from/to "nowhere")
s - legato slide
S - shift slide
- natural harmonic
(n) - artificial harmonic
n(n) - tapped harmonic
~ - vibrato
tr - trill
T - tap
TP - trem. picking
PM - palm muting
\n/ - tremolo bar dip; n = amount to dip
\n - tremolo bar down
n/ - tremolo bar up
/n\ - tremolo bar inverted dip
= - hold bend; also acts as connecting device for hammers/pulls
- volume swell (louder/softer)
x - on rhythm slash represents muted slash
o - on rhythm slash represents single note slash
Misc Legend
 
 -----------

| - bar
|| - double bar
||o - repeat start
o|| - repeat end
*| - double bar (ending)
: - bar (freetime)
$ - Segno
& - Coda
Tempo markers - = BPM(8/16=s8/s16), where s8 = swing 8ths, s16 = swing 16ths

Important: The song above is NOT stored on the Chordie server. The original song is hosted at www.guitartabs.cc. Chordie works as a search engine and provides on-the-fly formatting. Chordie does not index songs against artists'/composers' will. To remove this song please click here.

Text color:
Chord color:
Chord grids: 
Font size:    
Page size: 

Ab+ Am C E F Fm G
Rate #8 of 14 versions

Login - add to songbook

SHARE PAGE  



You need to log in to post comments