Guitar Tabs, Chords and Lyrics
Update 25:10. 13:00. Site is back up running again. Songbooks are recovered. Woring on getting search back up..


Guess God Thinks I'm Abel  Oasis

Oasis - Guess God thinks Im Abel
Dont belive the truth (2005)
Words and Music by Liam Gallagher
Capo 4th fret
Chords: EADGBE
Db7 (A7) 005050
Db7sus (A7sus4) 005030
Db13(A13) 007070
Abm7 (Em7) 022030
Cb6 (G6) 320030
Db7 (A7) 002020
D/Fis 200230
A7sus4* 002030
A 002220
E 022100
Guitars: Guitar 1: acoustic, Capo on 4
Guitar 2: electric(clean tone), no capo,
Intro: Gtr.1 (acoustic)Capo 4th Fret
 
 e---0---0---0---0---0---0---0---0-----0---0---0---0------|
 b---5---5---5---5---3---3---3---3-5/7-7---7---7---7------|
 g-0-0-0-0-0-0-0-0-0-0-0-0-0-0-0-0-0---0-0-0-0-0-0-0------| 2 times
 d-5-5-5-5-5-5-5-5-5-5-5-5-5-5-5-5-5/7-7-7-7-7-7-7-7------|
 a-0---0---0---0---0---0---0---0---0-----0---0---0--------|
 E--------------------------------------------------------|

i could be your lov--er you could be all mine-
 
 e---0---0---0---0---0---0---0---0-----0---0---0---0-|
 b---5---5---5---5---3---3---3---3-5/7-7---7---7---7-|
 g-0-0-0-0-0-0-0-0-0-0-0-0-0-0-0-0-0---0-0-0-0-0-0-0-|
 D-5-5-5-5-5-5-5-5-5-5-5-5-5-5-5-5-5/7-7-7-7-7-7-7-7-|
 a-0---0---0---0---0---0---0---0---0-----0---0---0---|
 E---------------------------------------------------|

we'd go on for---ever til the end of time
 
 e---0---0---0---0---0---0---0---0-----0---0---0---0-------|
 b---5---5---5---5---3---3---3---3-5/7-7---7---7---7-------|
 g-0-0-0-0-0-0-0-0-0-0-0-0-0-0-0-0-0---0-0-0-0-0-0-0-------| and so on
 d-5-5-5-5-5-5-5-5-5-5-5-5-5-5-5-5-5/7-7-7-7-7-7-7-7-------|
 a-0---0---0---0---0---0---0---0---0-----0---0---0---------|
 E---------------------------------------------------------|

[A7]you could be my bes[A7sus4]t friend
[A13]stay up all night long[A7]
[A7]you could be my rai[A7sus4]lroad
[A13]we'd go on and on[A7]
Em7 G6 A7*
lets get along, theres nothing here to do
Guitar 2: electric, clean
 
 e----------------------------------------|
 b-------------11-------------------------|
 g-------11----------------10---10---10---|
 d-11-13----13-----13~/11--11---11---11---|
 a----------------------------------------|
 E----------------------------------------|

[Em7]lets go fi[G6]nd a rain[A7]bow
 
 e----------------------------------------|
 b-------------11-------------------------|
 g-------11----------------10---10---10---|
 d-11-13----13-----13~/11--11---11---11---|
 a----------------------------------------|
 E----------------------------------------|

Em7 G6 A7*
i could be wrong but what am i to do?
 
 e----------------------------------------|
 b-------------11-------------------------|
 g-------11----------------10---10---10---|
 d-11-13----13-----13~/11--11---11---11---|
 a----------------------------------------|
 E----------------------------------------|

[Em7]guess god th[G6]inks im A[A7]bel[A7sus4]
 
 e-------------------------------------------------------------------|
 b-------------11-----------------------11 hold--------------11------| hold
 g-------11-----------------------11-------------------11------------|
 d-11-13----13-----13~/11---11-13----13----------11-13----13---------|
 a-------------------------------------------------------------------|
 E-------------------------------------------------------------------|

[A13] [A7] [A7]  
 
 e------------------------------------------------------------------|
 b-------------11----------------------------------------11 hold----|
 g-------11-----------------------------10----------11--------------|
 d-11-13----13-----13~/11---11----11----11----11-13----13-----------|
 a------------------------------------------------------------------|
 E------------------------------------------------------------------|

[A7sus4] [A13] [A7]  
 
 e------------------------------------------------------------|
 b-------------11--------------11-----------------------------|
 g-------11--------------11-------------------------------10--|
 d-11-13----13-----11-13----13----13---13~/11--11----11---11--|
 a------------------------------------------------------------|
 E------------------------------------------------------------|

[A7]you could be my e[A7sus4]nemy
[A13]i guess there's still tim[A7]e
[A7]i'd get 'round to lov[A7sus4]ing you
[A13]is that such a crime[A7]?
Em7 G6 A7*
lets get along, theres nothing here to do
 
 e----------------------------------------|
 b-------------11-------------------------|
 g-------11----------------10---10---10---|
 d-11-13----13-----13~/11--11---11---11---|
 a----------------------------------------|
 E----------------------------------------|

[Em7]lets go fi[G6]nd a rain[A7]bow
 
 e----------------------------------------|
 b-------------11-------------------------|
 g-------11----------------10---10---10---|
 d-11-13----13-----13~/11--11---11---11---|
 a----------------------------------------|
 E----------------------------------------|

Em7 G6 A7*
i could be wrong but what am i to do?
 
 e----------------------------------------|
 b-------------11-------------------------|
 g-------11----------------10---10---10---|
 d-11-13----13-----13~/11--11---11---11---|
 a----------------------------------------|
 E----------------------------------------|

[Em7]guess god th[G6]inks im A[A7]bel[A7sus4]
 
 e-------------------------------------------------------------------|
 b-------------11-----------------------11 hold--------------11------| hold
 g-------11-----------------------11-------------------11------------|
 d-11-13----13-----13~/11---11-13----13----------11-13----13---------|
 a-------------------------------------------------------------------|
 E-------------------------------------------------------------------|

[G6] no one can break us
 
 e---------------------------------------------|
 b-------------11 hold-----------------11 hold-|
 g-------11-----------------------11-----------|
 d-11-13----13--------------11-13----13--------|
 a---------------------------------------------|
 E---------------------------------------------|

[D/Fis]no one could take us if we tried
 
 e---------------------------------------------|
 b-------------11 hold-----------------11 hold-|
 g-------11-----------------------11-----------|
 d-11-13----13--------------11-13----13--------|
 a---------------------------------------------|
 E---------------------------------------------|
 e------------------------------------------------------------|
 h------------------------------------------------------------|
 g-10---10---10---11 hold--11---11---11---11---10-------------| let it ring
 d-11---11---11---11 hold--11---11---11---11---11-------------| let it ring
 a------------------------------------------------------------|
 E------------------------------------------------------------|

[G6]no one can break us
 
 e---------------------------------------------|
 b-------------11 hold-----------------11 hold-|
 g-------11-----------------------11-----------|
 d-11-13----13--------------11-13----13--------|
 a---------------------------------------------|
 E---------------------------------------------|

[D/Fis]no one could take us if we tried
 
 e---------------------------------------------|
 b-------------11 hold-----------------11 hold-|
 g-------11-----------------------11-----------|
 d-11-13----13--------------11-13----13--------|
 a---------------------------------------------|
 E---------------------------------------------|

[G6]no one can break us
 
 e---------------------------------------------|
 b-------------11 hold-----------------11 hold-|
 g-------11-----------------------11-----------|
 d-11-13----13--------------11-13----13--------|
 a---------------------------------------------|
 E---------------------------------------------|

[D/Fis]no one could take us if we tried
 
 e---------------------------------------------|
 b-------------11 hold-----------------11 hold-|
 g-------11-----------------------11-----------|
 d-11-13----13--------------11-13----13--------|
 a---------------------------------------------|
 E---------------------------------------------|

[A]Come Noel, l[G6]ets [E]make it tonig[A]ht
 
 e-0--0----0----0---0---0-0---0---0---0-----|
 h-2--2----2----3---3---0-0---0---0---2-----|
 g-2--2----2--0-0-0-0-0-0-1---1---1---2-----|let it ring
 d-2--2----2--0-0-0-0-0-0-2---2---2---2-----|
 a-0--0----0--2---2-2-2---2---2---2---0-----|
 E------------3---3-3-3---0---0---0---------|


Important: The song above is NOT stored on the Chordie server. The original song is hosted at www.guitartabs.cc. Chordie works as a search engine and provides on-the-fly formatting. Chordie does not index songs against artists'/composers' will. To remove this song please click here.

Text color:
Chord color:
Chord grids: 
Font size:    
Page size: 

A A13 A7 A7sus4 E Em7 G6
Rate #1 of 8 versions

Login - add to songbook

SHARE PAGE  



You need to log in to post comments