Guitar Tabs, Chords and Lyrics
Server problems seems to be fixed. Chordie has been experiencing problems with songs disappearing. These issues now seems to be fixed, but still verifying the fix. If you find anything strange, please email admin@chordie.com.


I'm Outta Time  Oasis

Oasis - I'm Outta Time (Liam Gallagher)
Dig Out Your Soul (2008)
Chords used:
[Em] [E7sus4] [Am] [C] [G] [Dadd4]  
 
 e|---0---0---0---0---3---3---|
 B|---0---0---1---1---3---3---|
 G|---0---2---2---0---0---2---|
 D|---2---0---2---2---0---0---|
 A|---2---2---0---3---2---X---|
 E|---0---0---X---X---3---2---|

Guitar & Piano arrangement (From what I can hear the piano plays the root notes while
guitar does this arrengement on the first 3 strings. At first I thought the guitar was
playing the root note on the 5th string with finger picking but I clearly hear a pick so
wouldn't possible. Here's the two parts put together)
[Em] [Cmaj7] [Em6] [Cmaj7]  
 
 e|------------0-------0-------0-------0-------0-------0-------0--------------|
 B|--------0-------0-------0-------0-------0-------0-------0-------0----------|
 G|------0---0---0---0---0---0---0---0---0---0---0---0---0---0---0---0--------|
 D|----2---------------2---------------2---------------2----------------------|
 A|----2---------------3---------------4---------------3----------------------|
 E|---------------------------------------------------------------------------|

Verse:
[Em]Here is a song, it reminds me of when[E7sus4] we were young
Looking back at all the t[Am]hings we've done
You gotta keep on[C] keeping on
[Em]Out to sea, it's the only place I h[E7sus4]onestly
Can get myself some pi[Am]ece of mind
You know it's getting h[C]ard to fly
Chorus:
[G]If I'm to fall [Dadd4]would you be there to applaud
Or w[Em]ould you hide behind them all? 'cos if I am to [Am]go
In my heart you'd g[C]row and that's where you bel[G]ong
Interlude: Em E7sus4 Am C
 
 e|---11b12--10---------------------------|
 B|--------------10h12--10----------------| (x4)
 G|-------------------------12--9---------|
 D|---------------------------------------|
 A|---------------------------------------|
 E|---------------------------------------|

Chorus: G Dadd4 Em Am C (x2)
[G]Guess I'm outta' time
G (Dadd4)*
I'm outta time
[Em]I'm outta time
[Am]I'm outta time
[C]I'm outta time
G (Dadd4)* Em Am C G (Dadd4)* transition from G to Em.

Important: The song above is NOT stored on the Chordie server. The original song is hosted at www.guitartabs.cc. Chordie works as a search engine and provides on-the-fly formatting. Chordie does not index songs against artists'/composers' will. To remove this song please click here.

Text color:
Chord color:
Chord grids: 
Font size:    
Page size: 

Am C Cmaj7 Dadd4 E7sus4 Em Em6 G
Rate #2 of 11 versions

Login - add to songbook

SHARE PAGE  




You need to log in to post comments