Guitar Tabs, Chords and Lyrics
Major upgrade!! After one year development the new version of Chordie is now online! Please give feedback.


Lyla  Oasis

Song: Lyla
Written By: Noel Gallagher
Album: Dont Believe The Truth (2005)
Tabbed By: Aryo Harris
This is the great brit rock n' roll song in this album!
I devide for two version, Rhythm Version and Lead Version.
Lead Version: Rhythm Version:
B5 (X244XX) B5 (X244XX)
Asus2 (002200) Asus2 (0024XX)
G6 (320000) G6 (3224XX)
E (022100) E (0224XX)
B' (X24441) B' (X244XX)
E' (XXX454) E' (0224XX)
A5 (002XXX) A5 (002XXX)
[F#]G5 [(244322)](355XXX) [F#]G5 [(244322)](355XXX)
A5 (577XXX) A5 (577XXX)
Symbols:
b: bending : down stroke
^: vibrate
r: release
Intro:
[A5]< > [B5]< > > > > > > >
 
 e-X-X---X-X-X-X-X-X-X-X
 B-X-X---X-X-X-X-X-X-X-X Repeat for 4 times
 G-X-X---4-4-4-4-4-4-4-4
 D-2-2---4-4-4-4-4-4-4-4
 A-0-0---2-2-2-2-2-2-2-2
 E-0-0---X-X-X-X-X-X-X-X

[Asus2] [E]Callin all the stars to fall
And [G6]catch the silver [Asus2]sunlight in your [Asus2] [B]hands
[Asus2] [E]Come for me and set me free
[G6]Lift me up and [Asus2]take me where I [Asus2] [B]stand
[Asus2] [E]She believes in everything
[G6]And everyone and [Asus2]you and yours and [Asus2] [B]mine
[G6]I waited for a thousand years
Asus2 B' E' B' Asus2-B' E' B'
For you to come and blow me out my mind
Reff:
( Tab from: http://www.guitartabs.cc/tabs/o/oasis/lyla_tab_ver_4.html )
Asus2 B' E' B' Asus2 E
Hey, Ly-la! A stars about to fall
B' E' B'
So what d'you say... Ly-la?
Asus2 E B' E' B'
The world around us makes me feel so small Ly-la!
Asus2 E B' E' B'
If you can hear me call, then I can't say Ly-la!
[Asus2]Heaven help you [E]catch me if I [F#]fall
Asus2-B (2 times)
[Asus2] [B]She's the queen of all I've seen
And [G6]every song and [E]city far and[Asus2] [B]near
[G6]Heaven-hell my mademoiselle
Asus2 B' E' B' Asus2-B' E' B'
She ring the bell for all the world to hear
(back to reff) and go to solo guitar
solo guitar:
[F#] [G5] [A5]  
 
 e|--------------------------------|
 B|--------------------------------|
 G|--------------7-----9b11-b11^^--|
 D|------------9----9--------------|
 A|---------0----------------------|
 E|-2-2--5\------------------------|
 e|----------------------------------|
 B|----------------------------------|
 G|----------------------------------|
 D|--------------7-----9b10r9^^------|
 A|---------0--9----9----------------|
 E|-2-2--5\--------------------------|
 e|--------------------------------------------------------------------------|
 B|-------------------------------------10------10-----10-----10------10-----|
 G|--------------7-----9b11-b11^^--9b11----9b11----b11----b11-----b11----b11-|
 D|------------9----9--------------------------------------------------------|
 A|---------0----------------------------------------------------------------|
 E|-2-2--5\------------------------------------------------------------------

(back to reff and go to ending below)
[F#]  
 
 e|------------1-------|
 B|--------------------|
 G|----------3---4-3---| till end!!!!
 D|-----2-4------------|
 A|-2b4----------------|
 E|--------------------|

Please rate this tab
more contact: io_harris@yahoo.com

Important: The song above is NOT stored on the Chordie server. The original song is hosted at www.guitartabs.cc. Chordie works as a search engine and provides on-the-fly formatting. Chordie does not index songs against artists'/composers' will. To remove this song please click here.

Text color:
Chord color:
Chord grids: 
Font size:    
Page size: 

A5 Asus2 B B5 E F# G5 G6
Rate #2 of 21 versions

Jango Player

Login - add to songbook

SHARE PAGE  



You need to log in to post comments