Guitar Tabs, Chords and Lyrics
Server problems seems to be fixed. Chordie has been experiencing problems with songs disappearing. These issues now seems to be fixed, but still verifying the fix. If you find anything strange, please email admin@chordie.com.


Magic Pie  Oasis

MAGIC PIE
As recorded by Oasis
(From the 1997 Album BE HERE NOW)
Words and Music by Noel Gallagher
x x [Dm]0 2 3 1 x 0 [Am]2 2 1 0 x [Fmaj7/C]3 3 2 1 0 3 2 0[G] 0 3 3
F GIII Bb A
1 3 3 2 x x 3 5 5 4 x x 6 8 8 7 x x 5 7 7 6 x x
x x 0[D] 2 3 2 x 3 2[C] 0 1 0 3 x [G5]0 0 3 3 2 x[G5/F#] 0 0 3 3
Em Bb(type 2) E Em11
0 2 2 0 0 0 x 1 3 3 3 x 0 2 2 1 0 0 0 0 0 0 0 0
Gtr I (E A D G B E) - 'acous'
Gtr II (E A D G B E) - 'elec w/ warm distortion'
Gtr III (E A D G B E) - 'elec w/ distortion'
Gtr IV (E A D G B E) - 'elec w/ distortion'
Gtr V (E A D G B E) - 'elec w/ distortion'
Gtr VI (E A D G B E) - 'elec w/ distortion'
Intro
Q=76
[Dm] [Am] [Fmaj7/C] [G] 
[4/4] Gtr I
E E E S S S S E E S S E E E S S S S E E S S
| | | | | | | | | | | | | | | | | | | | | |
[/] [/] [/] [/] [/] [/] [/] [/] [/] [/] [/] [/] [/] [/] [/] [/] [/] [/] [/] [/] [/] [/] 
Gtr II
W H Q S S S S
 
 |-----------------------|------------------------------|
 |-----------------------|--------------------------12s=|
 |-----------------------|-------------------10s12-(12)s|
 |-----------------------|------------------------------|
 |-----------------------|------------------------------|
 |-----------------------|------------------------------|

[Dm] E E E S S [Am]S S E E S S
| | | | | | | | | | |
[/] [/] [/] [/] [/] [/] [/] [/] [/] [/] [/]  
H. S S S S
 
 |----------------------------------|
 |-10-------------------------------|
 |-10-------------------------------|
 |----------------------------12s===|
 |---------------------10s12-(12)s==|
 |----------------------------------|

[Fmaj7/C] E E E S S [G] S S E E S S
| | | | | | | | | | |
[/] [/] [/] [/] [/] [/] [/] [/] [/] [/] [/]  
H +E. S S S E
 
 |-----------------------------------|
 |-----------------------------------|
 |------------------------------10---|
 |-10---------(10)--------10h12------|
 |-10---------(10)-----12------------|
 |-----------------------------------|

[Dm] E E E S S [Am]S S E E S S [Fmaj7/C] E E E S S [G]S S E E S S
| | | | | | | | | | | | | | | | | | | | | |
[/] [/] [/] [/] [/] [/] [/] [/] [/] [/] [/] [/] [/] [/] [/] [/] [/] [/] [/] [/] [/] [/] 
~~
Q +H +S S S S H. S S S S
 
 |-----------------------------------|---------------------------------|
 |--------------------------------12s|=10------------------------------|
 |--------------------------10h12-12s|=10------------------------------|
 |-12---(12)-----------(12)----------|----------------------------12s==|
 |-----------------------------------|---------------------10s12-(12)s=|
 |-----------------------------------|---------------------------------|

[Dm] E E E S S [Am] S S E E S S
| | | | | | | | | | |
[/] [/] [/] [/] [/] [/] [/] [/] [/] [/] [/] 
Q. E +E S S S S S S
 
 |---------------------------------------|
 |---------------------------------------|
 |---------------------------------10-12-|
 |-10------------------------10-12-------|
 |-10------12---(12)---10h12-------------|
 |---------------------------------------|

[Fmaj7/C] [G]  
E E E E +H [6/4] +H W
| | | | | | |
[/] [/] [/] [/] [/] [/] [/] 
~~~~
A +Q E E +H +Q. +E Q H.
 
 |----------------------------|-----------------------||
 |----------------------------|-----------------------||
 |-12b14-(12)---12-10-(10)----|-(10)---(10)\----------||
 |----------------------------|-----------------------||
 |----------------------------|-----------------------||
 |----------------------------|-----------------------||

Verse
[Dm] [Am] [Fmaj7/C] [G] 
[4/4] E E E S S S S E E S S E E E S S S S E E S S
| | | | | | | | | | | | | | | | | | | | | |
[/] [/] [/] [/] [/] [/] [/] [/] [/] [/] [/] [/] [/] [/] [/] [/] [/] [/] [/] [/] [/] [/] 
W H Q S S S S
 
 |-----------------------|-------------------------------|
 |-----------------------|--------------------------12s==|
 |-----------------------|-------------------10s12-(12)s=|
 |-----------------------|-------------------------------|
 |-----------------------|-------------------------------|
 |-----------------------|-------------------------------|

[Dm] E E E S S [Am]S S E E S S [Fmaj7/C]E E E S S [G]S S E E S S
| | | | | | | | | | | | | | | | | | | | | |
[/] [/] [/] [/] [/] [/] [/] [/] [/] [/] [/] [/] [/] [/] [/] [/] [/] [/] [/] [/] [/] [/] 
H. +E +E H Q S S S S
 
 |--------------------------------|-----------------------------|
 |-10----------------(10)-(10)\---|-----------------------------|
 |-10----------------(10)-(10)\---|-----------------------------|
 |--------------------------------|-------------------------12s=|
 |--------------------------------|-------------------10s12-10--|
 |--------------------------------|-----------------------------|

[Dm] E E E S S [Am] S S E E S S [Fmaj7/C] E E E S S [G]S S E E S S
| | | | | | | | | | | | | | | | | | | | | |
[/] [/] [/] [/] [/] [/] [/] [/] [/] [/] [/] [/] [/] [/] [/] [/] [/] [/] [/] [/] [/] [/] 
~~~
H +E Q. +W
 
 |-----------------------------|--------------------------|
 |-----------------------------|--------------------------|
 |-----------------------------|--------------------------|
 |-10---------(10)s==12--------|-(12)---------------------|
 |-----------------------------|--------------------------|
 |-----------------------------|--------------------------|

[Dm] [Am] [F]Gtrs I, I[E]Gtrs I, III, IV
E E E S S S S E E S S E E E E E E E E
| | | | | | | | | | | | | | | | | |
[/] [/] [/] [/] [/] [/] [/] [/] [/] [/] [/] [/] [/] [/] [/] [/] [/] [/] 
Gtr IV Gtr II
~~
W H Q S S E
 
 |-----------------------|-x\--------------------||
 |-----------------------|-----------------------||
 |-----------------------|--------------------10-||
 |-----------------------|--------------10h12----||
 |-----------------------|-----------------------||
 |-----------------------|-----------------------||

Verse
[Dm] E E E S S [Am]E E E S S [Fmaj7/C]E E E S S [G]E E E S S
| | | | | | | | | | | | | | | | | | | |
[/] [/] [/] [/] [/] [/] [/] [/] [/] [/] [/] [/] [/] [/] [/] [/] [/] [/] [/] [/] 
~~~
H. +E E H Q S S S S
 
 ||----------------------------|--------------------------|
 ||o---------------------------|--------------------------|
 ||--10------------------------|-----------------------10-|
 ||--12--------------(12)\-----|-----------------10h12----|
 ||o---------------------------|--------------------------|
 ||----------------------------|--------------------------|

[Dm] E E E S S [Am] E E E S S [Fmaj7/C]E E E S S [G] E E E S S
| | | | | | | | | | | | | | | | | | | |
[/] [/] [/] [/] [/] [/] [/] [/] [/] [/] [/] [/] [/] [/] [/] [/] [/] [/] [/] [/] 
S E. +Q +E E Q H A E E A E E
 
 |---------------------------------|-------------------------------|
 |---------------------------------|-------------------------------|
 |---------------------------------|-----------10s12s10-10s12s10---|
 |-10-12----(12)-----(12)\---------|-----------10s12s10-10s12s10---|
 |---------------------------------|-------------------------------|
 |---------------------------------|-------------------------------|

[Dm] E E E S S [Am] E E E S S [Fmaj7/C]E E E S S [G] E E E S S
| | | | | | | | | | | | | | | | | | | |
[/] [/] [/] [/] [/] [/] [/] [/] [/] [/] [/] [/] [/] [/] [/] [/] [/] [/] [/] [/] 
~~~~~~~~~~
S E. +Q +E E Q H E E E E
 
 |---------------------------------|-------------------------|
 |---------------------------------|-----------12s10-12s10---|
 |---------------------------------|-----------12s10-12s10---|
 |-10-12----(12)-----(12)\---------|-----------12s10-12s10---|
 |---------------------------------|-------------------------|
 |---------------------------------|-------------------------|

[Dm] E E E S S [Am] E E E S S
| | | | | | | | | |
[/] [/] [/] [/] [/] [/] [/] [/] [/] [/] 
~~~
S E. +Q +E S S S S S S
 
 |----------------------------------------------|
 |----------------------------------------------|
 |------------------------------10-12----12b14==|
 |-10h12----(12)-----(12)-10-12-------10--------|
 |----------------------------------------------|
 |----------------------------------------------|

[Fmaj7/C] E E E S S [G] E E E S [Em11]S
| | | | | | | | | |
[/] [/] [/] [/] [/] [/] [/] [/] [/] [/]  
~~
+Q S +S E H
 
 |--------------------------------||
 |--------------------------------||
 |-(12)---12r(12)-10---10---------||
 |--------------------------------||
 |--------------------------------||
 |--------------------------------||

Bridge
[Bb] [F] [G] [A] 
[E]| [E]| [E]| [E]| [E]| [E]| [E]| [E]| [E]| [E]| [E]| [E]| [E]| [E]| [E]| [E]|
[/] [/] [/] [/] [/] [/] [/] [/] [/] [/] [/] [/] [/] [/] [/] [/] 
W S S S S Q S S E Q
 
 |-------------------------------|------------------------------------|
 |-------------------------------|-----------12S=10-------------------|
 |-------------------------------|----10s12-(12)S10-------------------|
 |-------------------------------|------------------------10s12s10----|
 |-------------------------------|------------------------10s12s10----|
 |-------------------------------|------------------------------------|

|
| Gtr II
| ~~~~~~~~~~~ ~~~~~~~~~~~ ~~~~~~~~~~~~~~~~ ~~~~~~~~~~~
| S S E E E S S E E E S S E E E S S E E E
 
 |-------------------------------|------------------------------------|
 |-------------------------------|------------------------------------|
 |-------------------------------|-10---------------------------------|
 |-10-12-12-12-12-10-12-12-12-12-|----12-12------12-12-10-12-12-12-12-|
 |-------------------------------|------------------------------------|
 |-------------------------------|------------------------------------|

Bb F GIII
[E]| [E]| [E]| [E]| [E]| [E]| [E]| [E]|
[/] [/] [/] [/] [/] [/] [/] [/]  
A W
 
 |-----------------------------------|
 |-----------------------------------|
 |-----------------------------------|
 |-10h12-----------------------------|
 |-----------------------------------|
 |-----------------------------------|

|
| ~~~~~~~~~~~ ~~~~~~~~~~~
| S S E E E S S E E E
 
 |-----------------------------------|
 |-----------------------------------|
 |-----------------------------------|
 |----10-12-12-12-12-10-12-12-12-12--|
 |-----------------------------------|
 |-----------------------------------|

GIII Bb F GIII
[E]| [E]| [E]| [E]| [E]| [E]| [E]| [E]| [E]| [E]| [E]| [E]| [E]| [E]| [E]| [E]|
[/] [/] [/] [/] [/] [/] [/] [/] [/] [/] [/] [/] [/] [/] [/] [/] 
~~
S S S S Q S S E Q a W
 
 |------------------------------------|----------------------------------|
 |-----------12S=10-------------------|----------------------------------|
 |----10S12-(12)S10-------------------|----------------------------------|
 |------------------------10s12s10----|-10h12----------------------------|
 |------------------------10s12s10----|----------------------------------|
 |------------------------------------|----------------------------------|

|
| ~~~~~~~~~~~~~~~~ ~~~~~~~~~~~ ~~~~~~~~~~~ ~~~~~~~~~~~
| S S E E E S S E E E S S E E E S S E E E
 
 |------------------------------------|----------------------------------|
 |------------------------------------|----------------------------------|
 |-10---------------------------------|----------------------------------|
 |----12-12------12-12-10-12-12-12-12-|----10-12-12-12-12-10-12-12-12-12-|
 |------------------------------------|----------------------------------|
 |------------------------------------|----------------------------------|

[A]  
[E]| [E]| [E]| [E]| [E]| [E]| [E]| [E]|
[/] [/] [/] [/] [/] [/] [/] [/]  
S S S S Q S S E E S S
 
 |----------------------------------------|
 |-----------12S=10-----------------------|
 |----10s12-(12)S10-----------------------|
 |------------------------10s12s10-10-----|
 |------------------------10s12s10----10--|
 |----------------------------------------|

|
| ~~~~~~~~~~~~~~~~ ~~~~~~~~~~~
| S S E E E S S E E E
 
 |----------------------------------------|
 |----------------------------------------|
 |-10-------------------------------------|
 |----12-12------12-12-10-12-12-12-12-----|
 |----------------------------------------|
 |----------------------------------------|

Bb F GIII
[E]| [E]| [E]| [E]| [E]| [E]| [E]| [E]|
[/] [/] [/] [/] [/] [/] [/] [/]  
~~
A W
 
 |----------------------------------|
 |----------------------------------|
 |----------------------------------|
 |-10h12----------------------------|
 |----------------------------------|
 |----------------------------------|

|
| ~~~~~~~~~~~ ~~~~~~~~~~~
| S S E E E S S E E E
 
 |----------------------------------|
 |----------------------------------|
 |----------------------------------|
 |----10-12-12-12-12-10-12-12-12-12-|
 |----------------------------------|
 |----------------------------------|

W +E E +S E. E. S S S S S
| | | | | | | | | | |
( T[/]ab from: http://www.guitartabs.cc[/]/t[/]abs[/]/o[/]/oa[/]sis[/]/m[/]ag[/]ic[/]_p[/]ie_tab_ver_2.html )
Gtr II
W H Q E E
 
 |--------------------------------|-------------------------||
 |--------------------------------|-------------------------||
 |--------------------------------|---------------------5s==||
 |-12\----------------------------|-------------------------||
 |--------------------------------|-------------------------||
 |--------------------------------|-------------------------||

|
| ~~~~~~~~~~~ ~~~~~~~~~~~
| S S E E E S S E E E W
 
 |--------------------------------|-------------------------||
 |--------------------------------|-------------------------||
 |-10-----------------------------|-------------------------||
 |-----12-12-12-12-10-12-12-12-12-|-------------------------||
 |--------------------------------|-------------------------||
 |--------------------------------|-------------------------||

Chorus
[D]  
[E]| [E]| [E]| [E]| [E]| [E]| [E]| [E]|
[/] [/] [/] [/] [/] [/] [/] [/]  
E S S S S S S +S S S S +S S E
 
 |-----------------------5-(5)-----|
 |---7---7---7-8-(8)---8-------8---|
 |-7---7---7---------7-----------7s|
 |---------------------------------|
 |---------------------------------|
 |---------------------------------|

[C]E E E E E E [D] Q [G5]E E E E E E E E
| | | | | | | | | | | | | | |
/ / / / / / o / / / / / / / /
Gtrs II, V
E S S S S S S +S S S S +E S S S S E E E E E S S E
 
 |-----------------------3-(3)---3-|----------------------|
 |---5---5---5-6-(6)---6---------3-|----------------------|
 |-5---5---5---------5---------0---|----------------------|
 |---------------------------------|-0h2-0-2-0---0-0h2-0--|
 |---------------------------------|----------------------|
 |---------------------------------|-3---------3----------|

[G5] [D]  
[E]| [E]| [E]| [E]| [E]| [E]| [E]| [E]| [E]| [E]| [E]| [E]| [E]| [E]| [E]| [E]|
[/] [/] [/] [/] [/] [/] [/] [/] [/] [/] [/] [/] [/] [/] [/] [/] 
Gtr II
~
S S E E E S S E Q E S S S S S S +S S S S +S S E
 
 |---------------------|-----------------------5-(5)-----|
 |---------------------|---7---7---7-8-(8)---8-------8---|
 |---------------------|-7---7---7---------7-----------7s|
 |-0h2-0-2-0-----------|---------------------------------|
 |-----------1p0-------|---------------------------------|
 |-3-------------3-3---|---------------------------------|

[C]E E E E E E [D] Q
| | | | | | |
/ / / / / / o
E S S S S S S +S S S S +E S S
 
 |-----------------------3-(3)---3--|
 |---5---5---5-6-(6)---6---------3--|
 |-5---5---5---------5---------0----|
 |----------------------------------|
 |----------------------------------|
 |----------------------------------|

[G5]E E E E [G5/F#]E E E S S [Em]W
| | | | | | | | | |
[/] [/] [/] [/] [/] [/] [/] [/] [/] [/]  
Gtrs II, V Gtr VI
Q. E Q. E H.. S T T
 
 |---------------------|-------------10----|
 |---------------------|----------------10-|
 |---------------------|-------------------|
 |---------------------|-------------------|
 |---------------------|-------------------|
 |-3------3-2------2---|-0-----------------|

1.
[Bb] [F] [C] [G5]  
[3/4] E S S E S S E S S [4/4] W
| | | | | | | | | |
[/] [/] [/] [/] [/] [/] [/] [/] [/] [/]  
Gtrs V, VI
a +H. +W
 
 |----------------------------|-------------|
 |----------------------------|-------------|
 |-12b14-(12)-----------------|-(12)--------|
 |----------------------------|-------------|
 |----------------------3-----|-------------|
 |---------6------1-----------|---3---------|

Q Q Q W
+E E +S E. E S S +S S S S
| | | | | | | | | | |
[/] [/] [/] [/] [/] [/] [/] [/] [/] [/] [/] 
Gtr II
+W
 
 |----------------------------------------------||
 |---------------------------------------------o||
 |-(12)-----------------------------------------||
 |------10----10----10-10-10-10-10----10-10-12--||
 |---------------------------------------------o||
 |----------------------------------------------||

E E S S S S S S S S S S S S
Interlude
2.
Bb(typF 2) C G5
[3/4] E S S E S S E S S [4/4] E E E E E E E E
| | | | | | | | | | | | | | | | |
[/] [/] [/] [/] [/] [/] [/] [/] [/] [/] [/] [/] [/] [/] [/] [/] [/] 
Gtr II
W E E +Q S S S S S S E
 
 |-------------------|------------------------------|
 |-------------------|---5b6-(5)--------------------|
 |-------------------|---5b6-(5)---5pb6r5-3-------3-|
 |-------------------|----------------------5-3h5---|
 |-------------------|------------------------------|
 |-------------------|------------------------------|

Bb(typeF2) C
[3/4] E S S E S S E S S
| | | | | | | | |
[/] [/] [/] [/] [/] [/] [/] [/] [/]  
H.
 
 |--------------------|
 |--------------------|
 |--------------------|
 |-5------------------|
 |--------------------|
 |--------------------|

[G5]  
[4/4]  
[E]| [E]| [E]| [E]| [E]| [E]| [E]| [E]|
[/] [/] [/] [/] [/] [/] [/] [/] 
S S +E +S +S +S +S +S +S +S +S +Q
 
 |--------------------------------------------------------------|
 |---5b6==(5)r(5)b6==(5)r(5)b6==(5)r(5)b6==(5)r(5)b6==(5)r(5)---|
 |---5b6==(5)r(5)b6==(5)r(5)b6==(5)r(5)b6==(5)r(5)b6==(5)r(5)---|
 |--------------------------------------------------------------|
 |--------------------------------------------------------------|
 |--------------------------------------------------------------|

Bb(typeF2) C G5
[3/4] E S S E S S E S S [4/4] E E E E E E E E
| | | | | | | | | | | | | | | | |
[/] [/] [/] [/] [/] [/] [/] [/] [/] [/] [/] [/] [/] [/] [/] [/] [/] 
H. E E S S S S S S E +E A +E
 
 |--------------------|-----------------------------------|
 |--------------------|---5b5.5---------------------------|
 |--------------------|---5b5.5-3h4---------3-(3)-5b6-(5)-|
 |-5------------------|-------------5-3-3h5---------------|
 |--------------------|-----------------------------------|
 |--------------------|-----------------------------------|

Bb(typF 2) C G5
[3/4] E S S E S S E S S [4/4] E E E E E E E E
| | | | | | | | | | | | | | | | |
[/] [/] [/] [/] [/] [/] [/] [/] [/] [/] [/] [/] [/] [/] [/] [/] [/] 
E Q E +Q A +E A +E A +E A +E A +E A +E A +E A +E
 
 |-----------------------|-----------------------------------------------------------------|
 |-----------------------|-----------------------------------------------------------------|
 |-5-3-----5b7---(5)-----|-5b7-(5)-5b7-(5)-5b7-(5)-5b7-(5)-5b7-(5)-5b7-(5)-5b7-(5)-5b7-(5)-|
 |-----------------------|-----------------------------------------------------------------|
 |-----------------------|-----------------------------------------------------------------|
 |-----------------------|-----------------------------------------------------------------|

E E E S S S S E E S S
| | | | | | | | | | |
[/] [/] [/] [/] [/] [/] [/] [/] [/] [/] [/]  
S S S S Q +S S E Q
 
 |----------------------------------||
 |----------------------------------||
 |-7-5-3---------------3b3.5--------||
 |-------5-3-----(3)-5-------5------||
 |----------------------------------||
 |----------------------------------||

[D] [C] 
[E]| [E]| [E]| [E]| [E]| [E]| [E]| [E]| [E]| [E]| [E]| [E]| [E]| [E]| [E]| [E]|
[/] [/] [/] [/] [/] [/] [/] [/] [/] [/] [/] [/] [/] [/] [/] [/] 
E S S S S S S S S S S S S S S E S S S S S S S S S S E E
 
 ||--------------5-5---------------|-------------3-3-----------|
 ||o---7---8---8-------8---7-8-----|---5---6---6-------6---5---|
 ||--7---7---7-------7---7-----7-7-|-5---5---5-------5---5---5-|
 ||--------------------------------|---------------------------|
 ||o-------------------------------|---------------------------|
 ||--------------------------------|---------------------------|

[G5]  
[E]| [E]| [E]| [E]| [E]| [E]| [E]| [E]|
[/] [/] [/] [/] [/] [/] [/] [/] 
S S S S +S S E E E S S S S
 
 |---------------------10-------------------|
 |----12----13-(13)-------13-12-10----12----|
 |-12----12---------12-------------12----12-|
 |------------------------------------------|
 |------------------------------------------|
 |------------------------------------------|

[E]| [E]| [E]| [E]| [E]| [E]| [E]| [E]|
[/] [/] [/] [/] [/] [/] [/] [/]  
E S S +S S E S S E Q 4x
 
 |-------10-(10)-----------------------||
 |-13---------------13-12-13-12-------o||
 |----12---------12-------------12\----||
 |-------------------------------------||
 |------------------------------------o||
 |-------------------------------------||

Chorus
[D] [C] 
[E]| [E]| [E]| [E]| [E]| [E]| [E]| [E]| [E]| [E]| [E]| [E]| [E]| [E]| [E]| [E]|
[/] [/] [/] [/] [/] [/] [/] [/] [/] [/] [/] [/] [/] [/] [/] [/] 
E S S S S S S +S S S S +S S E E S S S S S S +S S S S +E S S
 
 ||------------------------5-(5)-----|-----------------------3-(3)---3-|
 ||o---7---7---7-8-(8)---8-------8---|---5---5---5-6-(6)---6---------3-|
 ||--7---7---7---------7-----------7-|-5---5---5---------5---------0---|
 ||----------------------------------|---------------------------------|
 ||o---------------------------------|---------------------------------|
 ||----------------------------------|---------------------------------|

1.,2.,3.
[G5]  
[E]| [E]| [E]| [E]| [E]| [E]| [E]| [E]| [E]| [E]| [E]| [E]| [E]| [E]| [E]| [E]|
[/] [/] [/] [/] [/] [/] [/] [/] [/] [/] [/] [/] [/] [/] [/] [/] 
Gtr V
~
S S E E E E E S S E S S E E E S S E Q
 
 |---------------------|----------------------||
 |---------------------|---------------------o||
 |---------------------|----------------------||
 |-0h2-0-2-0---0-0h2-0-|-0h2-0-2-0------------||
 |---------------------|-----------1-0-------o||
 |-3---------3---------|-3-------------3-3----||

Outro
4.
G5 G5/F# Em Bb(typC 2) F
E E E E E E E E E E E E E E E E [3/4] E S S E S S E S S
| | | | | | | | | | | | | | | | | | | | | | | | |
[/] [/] [/] [/] [/] [/] [/] [/] [/] [/] [/] [/] [/] [/] [/] [/] [/] [/] [/] [/] [/] [/] [/] [/] [/] 
Gtr II
Q. E Q. E W W
 
 |-------------------|-----------------|-------------------|
 |-3-----------------|-----------------|-------------------|
 |-0-----------------|-----------------|-------------------|
 |-0-----------------|-----------------|-------------------|
 |-------------------|-----------------|-------------------|
 |-3------3-2------2-|-0---------------|-------------------|

G5 Bb(type C) F
[4/4] H. +E S S [3/4] E S S E S S E S S
| | | | | | | | | | | | |
[/] [/] [/] [/] [/] [/] [/] [/] [/] [/] [/] [/] [/] 
~~~~~~~~~~~~~~~~~~~~~~~~
Q S S S S S S S S E E E E E E E E
 
 |-----15-13-------15-13---------------|-------------------------|
 |-----------15-13-------15-13-15-15---|-15-15---15-15---15-15---|
 |-------------------------------------|-------------------------|
 |-------------------------------------|-------------------------|
 |-------------------------------------|-------------------------|
 |-------------------------------------|-------------------------|

[G5]  
[4/4] H. +E S S
| | | |
[/] [/] [/] [/] 
~~~~~
E E E E S S S S S S E
 
 |-----15-15-15-15-13----------13-------|
 |-15-----------------15-13-15----15----|
 |--------------------------------------|
 |--------------------------------------|
 |--------------------------------------|
 |--------------------------------------|

Bb(type C) F G5
[3/4] E S S E S S E S S [4/4] H. +E S S
| | | | | | | | | | | | |
[/] [/] [/] [/] [/] [/] [/] [/] [/] [/] [/] [/] [/] 
~~~~~~~~~~~~~~~~~~~~~~~~~~~~~
 
 |--3--| |---3---|

E E E E E E E E S S E S S S S S S S S S S
 
 |-------------------------|--------15-13-------13-------15-13------------15-|
 |-15-15---15-15---15-15---|-15--15-------15-13----13h15-------15-13h15------|
 |-------------------------|-------------------------------------------------|
 |-------------------------|-------------------------------------------------|
 |-------------------------|-------------------------------------------------|
 |-------------------------|-------------------------------------------------|

Bb(type 2)C F
[3/4] E S S E S S E S S
| | | | | | | | |
[/] [/] [/] [/] [/] [/] [/] [/] [/]  
~~ ~~ ~~
Q a Q a Q
 
 |------------------------------|
 |-15-----13h15-----13h15-------|
 |------------------------------|
 |------------------------------|
 |------------------------------|
 |------------------------------|

[G5] [G5]  
[4/4] W +W W
| |
[/] [/]  
Gtr V
~~~~~~~~~~~~~~~~~~~~~~~~~~
a W W W
 
 |--------------|-----------|-------|
 |-13-15--------|-----------|-------|
 |--------------|-----------|-------|
 |--------------|-----------|-------|
 |--------------|-----------|-------|
 |--------------|--3s=======|=1s====|

~~~~~~~~~~~~~~~~~~~~~~~~~~
H. Q W W
 
 |-----------|----------|-------|
 |-----------|----------|-------|
 |-----------|----------|-------|
 |-----------|----------|-------|
 |-----------|----------|-------|
 |-3s=====5s=|=1--------|-3s====|

~~~~~~~~~~~~~
W W
 
 |----------|------*|
 |----------|------*|
 |----------|------*|
 |----------|------*|
 |----------|------*|

|-5s=======|=8----*|
Duration Legend
 
 ---------------
 W - whole; H - half; Q - quarter; E - 8th; S - 16th; T - 32nd; X - 64th; a - acciaccatura

+ - note tied to previous; . - note dotted; .. - note double dotted
Uncapitalized letters represent notes that are staccato (1/2 duration)
Irregular groupings are notated above the duration line
Duration letters will always appear directly above the note/fret number it represents the
duration for. Duration letters with no fret number below them represent rests. Multi-
bar rests are notated in the form Wxn, where n is the number of bars to rest for. Low
melody durations appear below the staff
Tablature Legend
 
 ----------------

h - hammer-on
p - pull-off
b - bend
pb - pre-bend
r - bend release (if no number after the r, then release immediately)
/\ - slide into or out of (from/to "nowhere")
s - legato slide
S - shift slide
- natural harmonic
(n) - artificial harmonic
n(n) - tapped harmonic
~ - vibrato
tr - trill
T - tap
TP - trem. picking
PM - palm muting
\n/ - tremolo bar dip; n = amount to dip
\n - tremolo bar down
n/ - tremolo bar up
/n\ - tremolo bar inverted dip
= - hold bend; also acts as connecting device for hammers/pulls
- volume swell (louder/softer)
x - on rhythm slash represents muted slash
o - on rhythm slash represents single note slash
Misc Legend
 
 -----------

| - bar
|| - double bar
||o - repeat start
o|| - repeat end
*| - double bar (ending)
: - bar (freetime)
$ - Segno
& - Coda
Tempo markers - = BPM(8/16=s8/s16), where s8 = swing 8ths, s16 = swing 16ths

Important: The song above is NOT stored on the Chordie server. The original song is hosted at www.guitartabs.cc. Chordie works as a search engine and provides on-the-fly formatting. Chordie does not index songs against artists'/composers' will. To remove this song please click here.

Text color:
Chord color:
Chord grids: 
Font size:    
Page size: 

A Am Bb C D Dm E Em Em11 F Fmaj7/C G G5 G5/F#
Rate #1 of 13 versions

Jango Player

Login - add to songbook

SHARE PAGE  



You need to log in to post comments