Guitar Tabs, Chords and Lyrics
Server problems seems to be fixed. Chordie has been experiencing problems with songs disappearing. These issues now seems to be fixed, but still verifying the fix. If you find anything strange, please email admin@chordie.com.


Married With Children  Oasis

 
 -----------------------------------------------------------------------------

MARRIED WITH CHILDREN - Oasis
 
 -----------------------------------------------------------------------------

Tabbed by: Travis Wong
Email: travis_wong@hotmail.com
Tuning:
Chords used:
E (022100)
[G#]C#m [(466544)](x46654)
[A]AaddG [(577655)](x02223)
A11 (577600)
C (x35553)
B7 (x24242)
[F#]F#5 [(244322)](2443xx)
F#11 (244300)
G11 (355400)
B11 (799800)
Note these chords strummed like this.
[B11] [A11] [G#m] [F#11]  
 
 e------0-----------0--------4------------0-----------------------------------|
 B------0-----------0--------4------------0-----------------------------------|
 G------8-----------6--------4------------3-----------------------------------|
 D--9------7--7--7-----7--6--6---4--4--4--------------------------------------|
 A--9------7--7--7-----7--6------4--4--4--------------------------------------|
 E--7------5--5--5-----5--4------2--2--2--------------------------------------|

[E] [G#] [C#m] [A] [C] [B7] [E] [E] [G#] [C#m] [A]  
 
 e----------------------------------------------------------------------------|
 B-----------------5h7-5--7b8-7-5----------------------5-7b8-7b8-7p5---5-7b8--|
 G-------------4h6------------------4-------------4-6---------------6---------|
 D------------------------------4h6---4h6-4-2--s6-----------------------------|
 A----------------------------------------------------------------------------|
 E----------------------------------------------------------------------------|

[C] [B7] [E]  
 
 e----------------------------------------------------------------------------|
 B--7p5---5--7b8-7-5----------------------------------------------------------|
 G------6---------------------------------------------------------------------|
 D----------------------------------------------------------------------------|
 A----------------------------------------------------------------------------|
 E----------------------------------------------------------------------------|

VERSE 1
 
 -------

[E] There's no [G#]need for you to [C#m]say you're [A]sorry
Good[C]bye, I'm [B7]going [E]home[E]
 
 e----------------------------------------------------------------------------|
 B---------5--------7b8-7-5---------------------------------------------------|
 G-----4h6------------------------4-------------------------------------------|
 D-4h6------------------------4h6---6-4-6-4-6-4-2-----------------------------|
 A----------------------------------------------------------------------------|
 E----------------------------------------------------------------------------|

[E] I don't [G#]care no more so [C#m]don't you w[A]orry
Good[C]bye, I'm [B7]going [E]home
 
 e----------------------------------------------------------------------------|
 B---------5--------7b8-7-5---------------------------------------------------|
 G-----4h6--------------------------------------------------------------------|
 D-4h6------------------------------------------------------------------------|
 A----------------------------------------------------------------------------|
 E----------------------------------------------------------------------------|

PRE-CHORUS
 
 ----------

[AaddG] I hate the way that even [E]though you know you're w[AaddG]rong
 
 e----------------------------------------------------------------------------|
 B------------5--------------------------------------------7b8-7-5------------|
 G-----4--4h6-----------------------------------------------------------------|
 D-4h6------------------------------------------------------------------------|
 A----------------------------------------------------------------------------|
 E----------------------------------------------------------------------------|

You say you're [E]right [AaddG] I hate the books you read and
 
 e----------------------------------------------------------------------------|
 B----------------------------------------------------------------------------|
 G---------------------4------------------------------------------------------|
 D-----------------4h6-----4h6-4-6-4-2----------------------------------------|
 A----------------------------------------------------------------------------|
 E----------------------------------------------------------------------------|

[E]all your friends Your [F#5]music's shite it keeps me
 
 e---------------------------------0------------------------------------------|
 B---------------------------0--------0---------------------------------------|
 G------------------------------3--------3------------------------------------|
 D----------------------------------------------------------------------------|
 A----------------------------------------------------------------------------|
 E----------------------------------------------------------------------------|

[A11]up all night up all [G11]night
 
 e----------------------------------------------------------------------------|
 B----------5-------------3---------------------------------------------------|
 G--------6-------------4-----------------------------------------------------|
 D----------------------------------------------------------------------------|
 A----------------------------------------------------------------------------|
 E----------------------------------------------------------------------------|

[E] There's no [G#]need for you to [C#m]say you're s[A]orry Good[C]bye, I'm [B7]going
 
 e----------------------------------------------------------------------------|
 B-----------------------------------------------5h7-5--------7b8-7-----------|
 G-------------------------------------------4h6------------------------------|
 D----------------------------------------------------------------------------|
 A----------------------------------------------------------------------------|
 E----------------------------------------------------------------------------|

( Tab from: http://www.guitartabs.cc/tabs/o/oasis/married_with_children_tab_ver_5.html )
[E]home [E] I don't [G#]care no more so [C#m]don't you
 
 e----------------------------------------------------------------------------|
 B-5--------------------------------------------------------------------------|
 G--------4-------------------------------------------------------------------|
 D----4h6---6---4-6-4-6-4-2---------------------------------------------------|
 A----------------------------------------------------------------------------|
 E----------------------------------------------------------------------------|

w[A]orry Good[C]bye, I'm [B7]going [E]home [AaddG] I hate the way the you are [E]so
 
 e----------------------------------------------------------------------------|
 B------5--7--5--------7b8-7-5----------5-------------------------------------|
 G---s6-----------------------------4h6---------------------------------------|
 D----------------------------------------------------------------------------|
 A----------------------------------------------------------------------------|
 E----------------------------------------------------------------------------|

sarcastic And [AaddG]you're not very [E]bright [AaddG]You think that
 
 e----------------------------------------------------------------------------|
 B--------7b8-7-5---5---------------------------------------------------------|
 G----------------6-----------------------4-----------------------------------|
 D------------------------------------4h6---6--4-6-4-6-4-2--------------------|
 A----------------------------------------------------------------------------|
 E----------------------------------------------------------------------------|

everything you've [E]done's fantastic Your [F#5]music's shite it keeps me
 
 e--------------------------------------------------0-------------------------|
 B---------------------------------------------0-------0----------------------|
 G------------------------------------------------3-------3-------------------|
 D----------------------------------------------------------------------------|
 A----------------------------------------------------------------------------|
 E----------------------------------------------------------------------------|

[A11] up all night up all[G11] night
 
 e----------------------------------------------------------------------------|
 B----------5------------3----------------------------------------------------|
 G--------6------------4------------------------------------------------------|
 D----------------------------------------------------------------------------|
 A----------------------------------------------------------------------------|
 E----------------------------------------------------------------------------|

SOLO
[----]  
[E] [G#] [C#m] [A] [C] [B7] [E] [E]  
 
 e----------------------------------------------------------------------------|
 B----------5---5-7b8-7b8-b8r7-5----------------------------------------------|
 G------4-6---6------------------------------------------4--------------------|
 D---s6---------------------------4b5-4b5-4--2-4-2---4h6---6--4-6-4-6-4-2-----|
 A----------------------------------------------------------------------------|
 E----------------------------------------------------------------------------|

[E] [G#] [C#m] [A] [C] [B7] [E]  
 
 e------------------------------------7---------------------------------------|
 B----------5---5-7b8-7b8-b8r7-5---s9---9-7--7-5------------------------------|
 G------4-6---6---------------------------------------------------------------|
 D---s6-----------------------------------------------------------------------|
 A----------------------------------------------------------------------------|
 E----------------------------------------------------------------------------|

BRIDGE
 
 ------

[C#m] And it will be [G#m]nice to be a[A]lone for a week or [E]two
 
 e---0---------------3-|
 B--------3------------|
 G---------------4-----|
 D---------------------|
 A---------------------|
 E---------------------|

[C#m] Then I know that[G#m] I will be right, [A]right back here with [B11]you
with [A11]you with [G#m]you with [F#11]you with [B11]you with [A11]you with [G#m]yoooooouu[F#11]uuu
FINAL VERSE
 
 -----------

[E] There's no [G#]need for you to [C#m]say you're s[A]orry Goodbye, I'm going
 
 e----------------------------------------------------------------------------|
 B-----------------------------------------7b8-7p5---5--------7b8r7-----------|
 G-------------------------------------------------6--------------------------|
 D----------------------------------------------------------------------------|
 A----------------------------------------------------------------------------|
 E----------------------------------------------------------------------------|

[E]home [E] I don't [G#]care no more so [C#m]don't you
 
 e----------------------------------------------------------------------------|
 B----------------------------------------------------------------------------|
 G--------4-----4-------------------------------------------------------------|
 D----4h6---4h6---4-2---------------------------------------------------------|
 A----------------------------------------------------------------------------|
 E----------------------------------------------------------------------------|

worry Goodbye.......I'm going...............home
 
 e------------------------------------------------------0---------------------|
 B-------5--7--7b8-------7b8-7b8r7--5---------5--5------8---------------------|
 G----s6----------------------------------4h6-----------7---------------------|
 D------------------------------------------------------6---------------------|
 A------------------------------------------------------7---------------------|
 E------------------------------------------------------0---------------------|

| / slide up
| \ slide down
| h hammer-on
| p pull-off
| ~ vibrato
| + harmonic
| x Mute note
=============================================================================

Important: The song above is NOT stored on the Chordie server. The original song is hosted at www.guitartabs.cc. Chordie works as a search engine and provides on-the-fly formatting. Chordie does not index songs against artists'/composers' will. To remove this song please click here.

Text color:
Chord color:
Chord grids: 
Font size:    
Page size: 

A A11 AaddG B11 B7 C C#m E F# F#11 F#5 G# G#m G11
Rate #18 of 33 versions

Login - add to songbook

SHARE PAGE  




You need to log in to post comments