Guitar Tabs, Chords and Lyrics
Server problems seems to be fixed. Chordie has been experiencing problems with songs disappearing. These issues now seems to be fixed, but still verifying the fix. If you find anything strange, please email admin@chordie.com.


My Big Mouth  Oasis

(Gallagher)Tab key:
========
h = hammer on
p = pull off
b = bend (7b8 means bend the string at the 7th fret to make approximately
the note the string would make if played at the 8th fret with no bend)
r = release bend
s = slide (a quick slide, two notes sound like one)
\ = a slower slide (clearly sounds like two notes separated by a slide)
~ = hold note
! = where listed above tab shows where RIFF 1 starts over and is played
again
Riff 1 (used in Verses and Chorus)
======
 
 e---------------------------------------------------------------------------
 B---------------------------------------------------------------------------
 G-------7--5----------------------------------------------------------------
 D--5\7--7--5--5-5--3-3-3-3--------------------------------------------------
 A--5\7--5--3--5-5--3-3-3-3--------------------------------------------------
 E--3\5--------3-3--0-1-0-1--------------------------------------------------

Riff 2 (used in Pre-Chorus)
======
Guitar #1:
[F5] [G5] [F5] [E] [G5]  
 
 e-----------------------------------------------------------------------------
 B-----------------------------------------------------------------------------
 G----------------------------------------------------------------------1------
 D--3--3--3--3---3--3--3--3---5---------5-----3--3--3--3----3--3--3--3--2---5--
 A--3--3--3--3---3--3--3--3---5----3-2--5-----3--3--3--3----3--3--3--3--2---5--
 E--0--1--1--1---0--1--1--1---3---------3--0--0--1--1--1----0--1--1--1--0---3--

Guitar #2 (at the same time):
[F5] [G5] [F5] [E] [G5]  
 
 e---------3-----------3------------3-------3---------3-----------3-----------
 B----------------------------------------------------------------------------
 G---4--5-----5--4--5-----5----4--5---5-4-5---5-4--5-----5--4--5-----5--------
 D----------------------------------------------------------------------------
 A----------------------------------------------------------------------------
 E----------------------------------------------------------------------------

Intro
=====
[A] [A] [A] [A]  
 
 e------------------------------------------------------
 B-10-------------8------------7------------5-----------
 G-12b14~~~~~~r--10b12~~~~~~r--9b11~~~~~~r--7b9~~~~~~r--
 D------------------------------------------------------
 A------------------------------------------------------
 E------------------------------------------------------

(Intro Solo played over Riff 1 chords)
! !
 
 e---------------------------------------------------------------------------
 B-5----5----5----5----------------------------------------------------------
 G-7b9--7b9--7b9--7b9--7p5---5---------5h7-5---5---------------5h7-5---5-7---
 D-------------------------7---7---5h7-------7---7--5--7---5h7-------7-------
 A---------------------------------------------------------------------------
 E---------------------------------------------------------------------------

! !
 
 e--------------------------------------------------------------------------
 B-5---5--5---5--5---5--5---------------------------------------------------
 G-7b9-b9-7b9-b9-7b9-b9-7b9--b9r7--5---------5h7-5---5----------------5-----
 D------------------------------------7--5h7-------7---7--5--7---5h7-----7--
 A--------------------------------------------------------------------------
 E--------------------------------------------------------------------------
 e---------------------------------------------------------------------------
 B---------------------------------------------------------------------------
 G------5--------------------------------------------------------------------
 D-5h7-----7~~~~~------------------------------------------------------------
 A---------------------------------------------------------------------------
 E---------------------------------------------------------------------------

Verse 1 (sung over Riff 1 chords)
=======
Everybody knows
And noone's sayin' nothin'
Is the sound so very loud
that noone can hear?
And there's somethin' in my shoes
That's keepin' me from walking
Down a long and winding road
Back home to you
Pre-chorus (sung over Riff 2)
==========
A[F5]round this town you've ceased to be
That's [G5]what you get for sleeping with the enemy
Where [F5]angels fly you won't play
So [E]guess who's gonna take the [G5]blame for my big
CHORUS (sung over Riff 1)
======
mouth
My big name
Who'll put on my shoes while they're walking slowly down the hall of fame
Into my big mouth
You could fly a plane
Who'll put on my shoes while they're walking slowly down the
hall of fame I ain't
 
 e----------!-------------------------------!-----------------------------------
 B-------------8-----8-----8-----8--------------8-----8-----8-----8-------------
 G---------7b9---7b9---7b9---7b9----7b9r7---7b9---7b9---7b9---7b9---7b9r7--5----
 D----------------------------------------------------------------------------7-
 A------------------------------------------------------------------------------
 E------------------------------------------------------------------------------

Verse 2 (sung over Riff 1)
=======
ever spoke to God
And I ain't ever been to heaven
But you assumed I knew the way
Even though the map was given
And as you look into the eyes
Of a bloody cold assassin
Only then you'll realize
With who's life you have been messin'
Pre-Chorus (sung over Riff 2)
==========
Around this town you've ceased to be
That's what you get for sleeping with the enemy
Where angels fly you won't play
So guess whose gonna take the blame for...
Chorus (sung over Riff 1)
======
My big mouth
My big name
Who'll put on my shoes while they're walking slowly down the
hall of fame Into...
 
 e---------------------------------------------------------------------------
 B---------------8-----------------------------------------------------------
 G----------7b9-----7--5---------5--5----------------------------------------
 D------------------------7--5h7-------7--5--7-------------------------------
 A---------------------------------------------------------------------------
 E---------------------------------------------------------------------------

...my big mouth
You could fly a plane
Who'll put on my shoes while they're walking slowly down the hall of fame
Solo
====
(THIS PART PLAYED OVER RIFF 2)
[F5] [G5] [F5] [E5] [G5]  
 
 e----------------------------------------------------------------------
 B-10-------10-------10-------10-------10------10-----10-----9-----7----
 guitar G-12b14----12b14----12b14----12b14----12b14---12b14--12b14-11b13--9b11-

A---------------------------------------------------------------------- E---------------------------------------------------------------------- e-12-------12-------------------------12------12------------- B-15b17----15b17----------------------15b17---15b17--end----- guitar G----------------------------------------------------guitar--
A------------------------------------------------------------ E------------------------------------------------------------
(Riff 1 starts) !
 
 e--------------!----------------------------------------------------------
 B-5------------7bbbb8.5---------------------------------------------------
 G-7b9r7--5-----7bbbb8.5--7b8.5---7---7b8.5r7--5---------5h7-5---5---------
 D-----------7------------------------------------7--5h7-------7---7--5--7-
 A-------------------------------------------------------------------------
 E-------------------------------------------------------------------------

! !
 
 e---------------------------------------------------------------------------
 B---------------------------------------------------------------------------
 G-----5h7-5---5----------7bbbbbbbbb8.5---7---7b8.5r7--5---------5h7-5---5---
 D-5h7-------7---7--5--7----------------------------------7--5h7-------7---7-
 A---------------------------------------------------------------------------
 E---------------------------------------------------------------------------

! !
 
 e----------------------------------------8-------------------------------
 B-------------------------7--------------7---------------7-------7-------
 G-----------5----------------5--------5-----5--------------5b5.5---5b5.5-
 D-5--7---7-----7---7-7-5--------7--7-----------7--7-7-5------------------
 A------------------------------------------------------------------------
 E------------------------------------------------------------------------
 e------------------------------------------------------------------------
 B-7------------------------------------------------------------5----7----
 G---5b5.5-------------5h7-5---5--------------5--5b5.5----------7b9--9b11-
 D----------7-5-7--5h7-------7---7--5--7--5h7----------7--5--7------------
 A------------------------------------------------------------------------
 E------------------------------------------------------------------------
 e---------------
 B--9-----10-----

[G-11b13--12b14--]  
 
 D---------------
 A---------------
 E---------------

Pre-Chorus
==========
(sung over Riff 2 and the below tabbed riffs)
 
 e-----------------------------------------------------------------
 B-10-------10-------10-------10-------10------10------9-----7-----
 guitar G-12b14----12b14----12b14----12b14----12b14---12b14--11b13--9b11--

A----------------------------------------------------------------- E----------------------------------------------------------------- e-12-------12-------12-------12-------12------12------------- B-15b17----15b17----15b17----15b17----15b17---15b17--end----- guitar G----------------------------------------------------guitar--
A------------------------------------------------------------ E------------------------------------------------------------
This is my big...
 
 e------------------
 B--5---------------
 guitar G--7b9--b9r7--5----

A------------------ E------------------
Chorus (sung over Riff 1)
======
mouth
My big name
Who'll put on my shoes while they're walking slowly down the
hall of fame Into my big...
 
 e---------------------------------------------------------------------------
 B----------8b10r8-----5-----------------------------------------------------
 G------------------7-----5s7--5--------5------------------------------------
 D--------------------------------7---7---7----------------------------------
 A---------------------------------------------------------------------------
 E---------------------------------------------------------------------------

mouth
You could fly a plane
Who'll put on my shoes while they're walking slowly down the
hall of fame slowly down the hall of fame
 
 e----------------------------------------------------------------------------
 B----------------------------------------------------------------------------
 G---------5-----------5--------------5-----5--------5---5------5---7b9r7-5---
 D------------7--7--7-----7--7--7--7-----7-----7---7---7---7--7---7---------7-
 A----------------------------------------------------------------------------
 E----------------------------------------------------------------------------
 e----------------------------------------------------------------------------
 B------------------------------7---------------------------------------------
 G-------5---------5---5--------7--5---5---5-----5------5---------5----7--5---
 D-7-7-7---7-7-7-7---7---7-7-7-------7---7---7------5h7----7--5h7----7------7-
 A----------------------------------------------------------------------------
 E----------------------------------------------------------------------------
 e-------------------------------------------
 B----------------------8----8---------------
 G-----5---------5------7b9--7b9--7p5----5---
 D-5h7----7--5h7----7------------------7---7-
 A-------------------------------------------
 E-------------------------------------------
 e----------------------------------------------------------------
 guitar B----------------------------------------------------------------

cont.. D-7---7---7---7---7---7---7---7----------------------7-------7--- A---------------------------------------------------------------- E---------------------------------------------------------------- e---------------------------------------------------------------- guitar B----------------------------------------------------------------
enters D-------------------------------7-5h7-------5--5----------------- A--------------------------------------------------5b6r5--3------ E------------------------------------------------------------5---

Important: The song above is NOT stored on the Chordie server. The original song is hosted at www.guitartabs.cc. Chordie works as a search engine and provides on-the-fly formatting. Chordie does not index songs against artists'/composers' will. To remove this song please click here.

Text color:
Chord color:
Chord grids: 
Font size:    
Page size: 

A E E5 F5 G5
Rate #0 of 14 versions

Jango Player

Login - add to songbook

SHARE PAGE  




You need to log in to post comments