Guitar Tabs, Chords and Lyrics
Major upgrade!! After one year development the new version of Chordie is now online! Please give feedback.


She's Electric  Oasis

for anyone tring to learn she's elecrtic but can't manage the bar chords here is a
reallly easy way to play the song
standard tunning
intro:
 
 E|------------------- \ E|------------------|
 B|------------------- \ B|------------------|
 G|------------------- \X3 G|------------------|
 D|------------66----- / D|--55--77--99999---|
 A|--22---66---44---77 / A|--33--55--77777---|
 E|--00---44--------55 / E|------------------|

For the intro play two down strums except for the [99]77 where you should play up down rhyhtm.
For the verse you play the same thing but twice round
__________________________________________________
 
 E|------------------- \ E|------------------ \
 B|------------------- \ B|------------------ \
 G|------------------- \X3 G|------------------ \ X2
 D|------------66----- / D|--55--77--99999--- /
 A|--22---66---44---77 / A|--33--55--77777--- /
 E|--00---44--------55 / E|------------------ /

_________________________________________________
Chorus:
go to chords
And i [Amaj7]want you to [A]know ive got my [Amaj7]mind made up now [A]
Amaj7 E | E | A |
But i need more time
And i [Amaj7]want you to [A]say do you know [Amaj7]what im saying [A]
But i [Amaj7]need more,
'Cause [E]i'll be you and you'll be me.
There's[E7] lot and lots for us to see
[F#m7add4] There's lot and lot's for us to do
[B]She is electric can i be electric too?
Instumental:
 
 E|------------------- \ E|------------------|
 B|------------------- \ B|------------------|
 G|------------------- \X3 G|------------------|
 D|------------66----- / D|--55--77--99999---|
 A|--22---66---44---77 / A|--33--55--77777---|
 E|--00---44--------55 / E|------------------|

Verse 2:
__________________________________________________
 
 E|------------------- \ E|------------------ \
 B|------------------- \ B|------------------ \
 G|------------------- \X3 G|------------------ \ X2
 D|------------66----- / D|--55--77--99999--- /
 A|--22---66---44---77 / A|--33--55--77777--- /
 E|--00---44--------55 / E|------------------ /

_________________________________________________
Chorus 2:
go to chords
And i [Amaj7]want you to [A]know ive got my [Amaj7]mind made up now [A]
Amaj7 E | E | A |
But i need more time
And i [Amaj7]want you to [A]say do you know [Amaj7]what im saying [A]
But i [Amaj7]need more,
'Cause [E]i'll be you and you'll be me.
There's[E7] lot and lots for us to see
[F#m7add4] There's lot and lot's for us to do
[B]She is electric can i be electric too?
Outro:
E C D | E | C D
Can i be electric too?
E C D | E | C D
Can i be electric too?
E C D | E
Can i be electric too?
C |E |D |E |E
Ah.______________________

Important: The song above is NOT stored on the Chordie server. The original song is hosted at www.guitartabs.cc. Chordie works as a search engine and provides on-the-fly formatting. Chordie does not index songs against artists'/composers' will. To remove this song please click here.

Text color:
Chord color:
Chord grids: 
Font size:    
Page size: 

A Amaj7 B E E7 F#m7add4
Rate #1 of 9 versions

Jango Player

Login - add to songbook

SHARE PAGE  



You need to log in to post comments