Guitar Tabs, Chords and Lyrics
Server problems seems to be fixed. Chordie has been experiencing problems with songs disappearing. These issues now seems to be fixed, but still verifying the fix. If you find anything strange, please email admin@chordie.com.


Stop Crying Your Heart Out  Oasis

Beautiful Song. Here's how I like to play it, enjoy :)
Standard Tuning
Bm(add11) x99700
Asus2 x02200
Em 022000
G 320033
D xx0232
Asus4 x02230
Em7 022030
Esus4 022200
Intro:
[Bm(add11)]  
 
 e----------0---------------0-------|
 B------------0---0-----------0---0-|
 G------7-------7-------7-------7---| X2
 D----9---9-----------9---9---------|
 A--9---------------9---------------|
 E----------------------------------|

Verse 1:
Hold Up..................................
[Bm(add11)]  
 
 e----------0---------------0-------|
 B------------0---0-----------0---0-|
 G------7-------7-------7-------7---|
 D----9---9-----------9---9---------|
 A--9---------------9---------------|
 E----------------------------------|

Hold On..................................
[Asus2]  
 
 e----------0---------------0-------|
 B------0-----0---0-----0-----0---0-|
 G----2---2-----2-----2---2-----2---|
 D--2---------------2---------------|
 A----------------------------------|
 E----------------------------------|

Don't be scared..........................
[Em]  
 
 e----------0---------------0-------|
 B------------0---0-----------0---0-|
 G------0-------0-------0-------0---|
 D----2---2-----------2---2---------|
 A--2---------------2---------------|
 E----------------------------------|

You'll never change what's been and gone.
[G]  
 
 e----------3---------------3-------|
 B------------3---3-----------3---3-|
 G------0-------0-------0-------0---|
 D----0---0-----------0---0---------|
 A----------------------------------|
 E--3---------------3---------------|

Verse 2: Same as verse 1
May your[Bm(add11)] smile
Shine On[Asus2]
Don't be[Em] scared
Your des[G]tiny will keep you warm
Chorus:
'Cause all of the stars..
[D]  
 
 e----------2-------|
 B------3-----3---3-|
 G----2---2-----2---|
 D--0---------------|
 A------------------|
 E------------------|

Have faded away..........
[Asus4]  
 
 e----------0-------|
 B------3-----3---3-|
 G----2---2-----2---|
 D--2---------------|
 A------------------|
 E------------------|

Just try not to worry....
[Em7]  
 
 e----------0-------|
 B------------3---3-|
 G------0-------2---|
 D----2---2---------|
 A--2---------------|
 E------------------|

You'll see them someday..
[G]  
 
 e----------3-------|
 B------------3---3-|
 G------0-------0---|
 D----0---0---------|
 A------------------|
 E--3---------------|

Take what you need.......
[D]  
 
 e----------2-------|
 B------3-----3---3-|
 G----2---2-----2---|
 D--0---------------|
 A------------------|
 E------------------|

And be on your way.....
[Asus4]  
 
 e----------0-------|
 B------3-----3---3-|
 G----2---2-----2---|
 D--2---------------|
 A------------------|
 E------------------|

And stop crying your heart out
[Em7]  
 
 e----------0-------|
 B------------3---3-|
 G------0-------2---|
 D----2---2---------|
 A--2---------------|
 E------------------|

( Tab from: http://www.guitartabs.cc/tabs/o/oasis/stop_crying_your_heart_out_tab_ver_2.html )
.........................
[G]  
 
 e----------3-------|
 B------------3---3-|
 G------0-------0---|
 D----0---0---------|
 A------------------|
 E--3---------------|

Verse 3:
At this point, heavier/more upbeat drumming begins.
I usually start strumming the chords, but picking the individual notes still sounds good.
Its the same as verse 1 again, with an optional hammer on if strumming.
Get Up (get up)[Bm(add11)]
Come on (come o[Asus2]n)
Em, Esus4, Em
Why you scared (i'm not scared)
You'll never ch[G]ange what's been and gone
Chorus:
Cause all of the [D]stars have faded a[Asus4]way
Just try not to w[Em7]orry you'll see them som[G]e day
Take what you nee[D]d and be on your way[Asus4]
And stop crying your h[Em7]eart out[G]
Bridge/solo:
 
 e|--------0----------|
 B|------7--7---------|
 G|----7--------------| 16x
 D|-------------------|
 A|-------------------|
 E|-------------------|

Chrous:
Cause all of the [D]stars, have faded [Asus4]away
Just try not to w[Em7]orry, you'll see them so[G]me day
Take what you nee[D]d, and be on your wa[Asus4]y
And stop crying your h[Em7]eart out[G]
We're all of the [D]stars, we're fadin[Asus4]g away
Just try not to w[Em7]orry, you'll see us some[G] day
Just take what yo[D]u need and be on you[Asus4]r way
And stop crying your h[Em7]eart out[G]
Stop crying your h[Em7]eart out[G]
Stop crying your h[Em7]eart out[G]
Stop crying your h[Em7]eart out[G]
Outro:
 
 e|-------14-12-14----|
 B|----15-------------|
 G|-------------------| x14
 D|-------------------|
 A|-------------------|
 E|-------------------| 

At the end of the 14th repetition, hit the 15 on the B string 4 times gently (like an echo).
Then:
 
 e|-------14----12----|
 B|-15----------------|
 G|-------------------| x2
 D|-------------------|
 A|-------------------|
 E|-------------------|
 e|-------14----12----------------14----12----|
 B|-15----------------12----15----------------|
 G|-------------------------------------------|
 D|-------------------------------------------|
 A|-------------------------------------------|
 E|-------------------------------------------|
 e|-------14----12----|
 B|-15----------------|
 G|-------------------| x2
 D|-------------------|
 A|-------------------|
 E|-------------------|
 e|-------14----12----------------14----12------------|
 B|-15----------------12----15----------------12----15|
 G|---------------------------------------------------|
 D|---------------------------------------------------|
 A|---------------------------------------------------|
 E|---------------------------------------------------|

Thats it! Hope you enjoy! Please rate and comment :D

Important: The song above is NOT stored on the Chordie server. The original song is hosted at www.guitartabs.cc. Chordie works as a search engine and provides on-the-fly formatting. Chordie does not index songs against artists'/composers' will. To remove this song please click here.

Text color:
Chord color:
Chord grids: 
Font size:    
Page size: 

Asus2 Asus4 D Em Em7 G
Rate #12 of 34 versions

Login - add to songbook

SHARE PAGE  



You need to log in to post comments