Guitar Tabs, Chords and Lyrics
Major upgrade!! After one year development the new version of Chordie is now online! Please give feedback.


The Importance of Being Idle  Oasis

I know that there are already some tabs but I figured it all out by myself. As for the
there's a bit of a confusing part going on and I'm not totally sure if it's right (though
sounds good enough) I hope you love this song as much as I do!!! - Superseb
Oasis - The Importance Of Being Idle
Chords:
Am: x02210
E: 022100
Fmaj7: x33210
C: x32010
B7: x21200
E7: 020100
Dm: x00231 or x57765
Intro: Am, E, Am E, Am, E, Am, E, Am
I [Am]sold my soul for the s[Fmaj7]econd time
cos the l[C]and, it don't [B7]pay m[E]e
i b[Am]egged my landlord for [Fmaj7]some more time
he said "s[C]on, the bills are [B7]wait[E]ing"
my b[Am]est friend called me the [Fmaj7]other night
he said "m[C]an, are you [B7]craz[E]y?"
my g[Am]irlfriend told me to g[Fmaj7]et a life
she said b[C]oy, are you [B7]lazy[E]
[Dm] But i don't[Am] mind
as l[Dm]ong as there's a bed beneath the s[Am]tars that shine
[Dm]I'll be [Am]fine
If you g[Fmaj7]ive me a minute, a man's got a limit
I c[G]an't get a life if my he[E]art's not in [E7]it
Solo: Am, Fmaj7, C, B7, E 4x
 
 e|-------------------------------------------------------0-------------------------------------|
 B|---------5---------13-12-----------------------------5---5-----------------------------------|
 G|-----5-7---7-5-----------14-12----12-14-12-----7---7-----------------------------------------|
 D|-7-------------7---------------14----------14----7-------------------------------------------|
 A|---------------------------------------------------------------------------------------------|
 E|---------------------------------------------------------------------------------------------|
 e|-------------------------------------------------------0-------------------------------------|
 B|---------5---------13-12-----------------------------5---5-----------------------------------|
 G|-----5-7---7-5-----------14-12----12-14-12-----7---7-----------------------------------------|
 D|-7-------------7---------------14----------14----7-------------------------------------------|
 A|---------------------------------------------------------------------------------------------|
 E|---------------------------------------------------------------------------------------------|
 e|------------------------------------------------------------------------------------------------|
 B|----------------------------------------------------------------------20------------------------|
 G|---19b21-b21--21b19-17----17-----19b21-b21--21b19-17----17-----19b21-----21b19-17----17-16------|
 D|-----------------------------19----------------------------19---------------------19------------|
 A|------------------------------------------------------------------------------------------------|
 E|------------------------------------------------------------------------------------------------|
 e|------------------------------------------------------------------------------------------------|
 B|---------------------------------------20-------------------------------------------------------|
 G|---19b21-b21--21b19-17----17-----19b21----21b19-17----17-19b21----------------------------------|
 D|-----------------------------19--------------------19-------------------------------------------|
 A|------------------------------------------------------------------------------------------------|
 E|------------------------------------------------------------------------------------------------|

[Dm] I don't min[Am]d
as l[Dm]ong as there's a bed beneath the s[Am]tars that shine
[Dm] I'll b[Am]e fine
If you g[Fmaj7]ive me a minute, a man's got a limit
I c[G]an't get a life if my he[E]art's not in [E7]it
(Repeat the intro)
I l[Am]ost my faith in the s[Fmaj7]ummertime
cos it d[C]on't stop [B7]rain[E]ing
The [Am]sky all day is as b[Fmaj7]lack as night
but i'm n[C]ot comp[B7]lain[E]ing
I b[Am]egged my doctor for [Fmaj7]one more line
he said s[C]on words [B7]fail[E] me
it [Am]ain't no place to be [Fmaj7]killing time
i guess [C]i'm just [B7]lazy[E]
[Dm] I don't min[Am]d
as l[Dm]ong as there's a bed beneath the s[Am]tars that shine
[Dm] I'll b[Am]e fine
If you g[Fmaj7]ive me a minute, a man's got a limit
I c[G]an't get a life if my he[E]art's not in [E7]it
Repeat the intro and cut off the last Am by muting it right after you hit it
Tabbed by Superseb (sebas14485@hotmail.com)

Important: The song above is NOT stored on the Chordie server. The original song is hosted at www.guitartabs.cc. Chordie works as a search engine and provides on-the-fly formatting. Chordie does not index songs against artists'/composers' will. To remove this song please click here.

Text color:
Chord color:
Chord grids: 
Font size:    
Page size: 

Am B7 C Dm E E7 Fmaj7 G
Rate #3 of 5 versions

Login - add to songbook

SHARE PAGE  




You need to log in to post comments