Guitar Tabs, Chords and Lyrics
Login is temporarily disabled for some users. Do not panic. Will be back in an hour or two. DO NOT REREGISTER!!


Cruising California (Bumpin' in My Trunk)  The Offspring

CRUISING CALIFORNIA (BUMPIN' IN MY TRUNK) (Bassline)
As recorded by The Offspring
(From the 2012 Album DAYS GO BY)
Transcribed by Whoabot
Words and Music by The Offspring
Arranged by The Offspring
Gtr I (E A D G) - 'Bass'
Intro
Q=118
[4/4] Gtr I
Wx8
 
 |--------||
 |--------||
 |--------||
 |--------||

Chorus
Q=125
[E] [E] [E] [E] [E] [E] [E] [E] [E] [E] [E] [E] [E] [E] [E] [E]  
 
 ||--------------------------|-------------------------|
 ||o-------------------------|-------------------------|
 ||o-10-10-10-10-10-10-10-10-|-10----------------------|
 ||--------------------------|----10-10-10-10-10-10-10-|

[E] [E] [E] [E] [E] [E] [E] [E] [E] [E] [E] [E] [E] [E] [E] [E]  
 
 |-----------------|-------------------||
 |-----------------|------------------o||
 |-7-7-7-7-7-7-7-7-|-7----------------o||
 |-----------------|---8-8-8-8-8-8-8---||

Verse
Q=118
Q Q E E Q Q Q E E E E Q Q E E Q Q Q E E E E
 
 |--------------|---------------|--------------|---------------|
 |-x--x--x-x-x--|-x--x--x-x-x-x-|-x--x--x-x-x--|-x--x--x-x-x-x-|
 |-x--x--x-x-x--|-x--x--x-x-x-x-|-x--x--x-x-x--|-x--x--x-x-x-x-|
 |-x--x--x-x-x--|-x--x--x-x-x-x-|-x--x--x-x-x--|-x--x--x-x-x-x-|

Q Q E E Q Q Q E E E E Q Q E E Q Q Q Q Q
 
 |--------------|---------------|--------------|-------------|
 |-x--x--x-x-x--|-x--x--x-x-x-x-|-x--x--x-x-x--|-x--x--x--x--|
 |-x--x--x-x-x--|-x--x--x-x-x-x-|-x--x--x-x-x--|-x--x--x--x--|
 |-x--x--x-x-x--|-x--x--x-x-x-x-|-x--x--x-x-x--|-x--x--x--x--|

Q Q E E Q Q Q E E E E Q Q E E Q Q Q E E E E
 
 |--------------|---------------------------|--------------|---------------|
 |-x--x--x-x-x--|--x----x----x---x---x---x--|-x--x--x-x-x--|-x--x--x-x-x-x-|
 |-x--x--x-x-x--|--x----x----x---x---x---x--|-x--x--x-x-x--|-x--x--x-x-x-x-|
 |-3--3--3-3-3--|-(x)--(x)--(x)-(x)-(x)-(x)-|-0--0--0-0-0--|-x--x--x-x-x-x-|

Q Q E E E E Q Q E E E E Q Q E E Q Q Q Q Q
 
 |---------------|---------------------------|--------------|-------------||
 |-x--x--x-x-x-x-|--x----x----x---x---x---x--|-x--x--x-x-x--|-x--x--x--x--||
 |-x--x--x-x-x-x-|--x----x----x---x---x---x--|-x--x--x-x-x--|-x--x--x--x--||
 |-3--3--3-3-3-3-|-(x)--(x)--(x)-(x)-(x)-(x)-|-0--0--0-0-0--|-x--x--x--x--||

Chorus
Q=125
[E] [E] [E] [E] [E] [E] [E] [E] [E] [E] [E] [E] [E] [E] [E] [E]  
 
 ||--------------------------|-------------------------|
 ||o-------------------------|-------------------------|
 ||o-10-10-10-10-10-10-10-10-|-10----------------------|
 ||--------------------------|----10-10-10-10-10-10-10-|

[E] [E] [E] [E] [E] [E] [E] [E] [E] [E] [E] [E] [E] [E] [E] [E]  
 
 |-----------------|-------------------||
 |-----------------|------------------o||
 |-7-7-7-7-7-7-7-7-|-7----------------o||
 |-----------------|---8-8-8-8-8-8-8---||

Verse
Q=118
Q Q E E Q Q Q E E E E Q Q E E Q Q Q E E E E
 
 |--------------|---------------|--------------|---------------|
 |-x--x--x-x-x--|-x--x--x-x-x-x-|-x--x--x-x-x--|-x--x--x-x-x-x-|
 |-x--x--x-x-x--|-x--x--x-x-x-x-|-x--x--x-x-x--|-x--x--x-x-x-x-|
 |-x--x--x-x-x--|-x--x--x-x-x-x-|-x--x--x-x-x--|-x--x--x-x-x-x-|

Q Q E E Q Q Q E E E E Q Q E E Q Q Q Q Q
 
 |--------------|---------------|--------------|-------------|
 |-x--x--x-x-x--|-x--x--x-x-x-x-|-x--x--x-x-x--|-x--x--x--x--|
 |-x--x--x-x-x--|-x--x--x-x-x-x-|-x--x--x-x-x--|-x--x--x--x--|
 |-x--x--x-x-x--|-x--x--x-x-x-x-|-x--x--x-x-x--|-x--x--x--x--|

Q Q E E Q Q Q E E E E Q Q E E Q Q Q E E E E
 
 |--------------|---------------------------|--------------|---------------|
 |-x--x--x-x-x--|--x----x----x---x---x---x--|-x--x--x-x-x--|-x--x--x-x-x-x-|
 |-x--x--x-x-x--|--x----x----x---x---x---x--|-x--x--x-x-x--|-x--x--x-x-x-x-|
 |-3--3--3-3-3--|-(x)--(x)--(x)-(x)-(x)-(x)-|-0--0--0-0-0--|-x--x--x-x-x-x-|

Q Q E E E E Q Q E E E E Q Q E E Q Q Q Q Q
 
 |---------------|---------------------------|--------------|-------------||
 |-x--x--x-x-x-x-|--x----x----x---x---x---x--|-x--x--x-x-x--|-x--x--x--x--||
 |-x--x--x-x-x-x-|--x----x----x---x---x---x--|-x--x--x-x-x--|-x--x--x--x--||
 |-3--3--3-3-3-3-|-(x)--(x)--(x)-(x)-(x)-(x)-|-0--0--0-0-0--|-x--x--x--x--||

Chorus
Q=125
[E] [E] [E] [E] [E] [E] [E] [E] [E] [E] [E] [E] [E] [E] [E] [E]  
 
 ||--------------------------|-------------------------|
 ||o-------------------------|-------------------------|
 ||o-10-10-10-10-10-10-10-10-|-10----------------------|
 ||--------------------------|----10-10-10-10-10-10-10-|

[E] [E] [E] [E] [E] [E] [E] [E] [E] [E] [E] [E] [E] [E] [E] [E]  
 
 |-----------------|-------------------||
 |-----------------|------------------o||
 |-7-7-7-7-7-7-7-7-|-7----------------o||
 |-----------------|---8-8-8-8-8-8-8---||

[E] [E] [E] [E] [E] [E] [E] [E] [E] [E] [E] [E] [E] [E] [E] [E]  
 
 |-------------------------|-------------------------|
 |-------------------------|-------------------------|
 |-10-10-10-10-10-10-10-10-|-10----------------------|
 |-------------------------|----10-10-10-10-10-10-10-|

[E] [E] [E] [E] [E] [E] [E] [E] [E] [E] [E] [E] [E] [E] [E] [E]  
 
 |-----------------|-----------------|
 |-----------------|-----------------|
 |-----------------|-----------------|
 |-0-0-0-0-0-0-0-0-|-0-8-8-8-8-8-8-8-|

[E] [E] [E] [E] [E] [E] [E] [E] [E] [E] [E] [E] [E] [E] [E] [E]  
 
 |-------------------------|-------------------------|
 |-------------------------|-------------------------|
 |-10-10-10-10-10-10-10-10-|-10----------------------|
 |-------------------------|----10-10-10-10-10-10-10-|

[E] [E] [E] [E] [E] [E] [E] [E] [E] [E] [E] [E] [E] [E] [E] [E]  
 
 |-----------------|-----------------||
 |-----------------|-----------------||
 |-7-7-7-7-7-7-7-7-|-7---------------||
 |-----------------|---8-8-8-8-8-8-8-||

Interlude
Q=118
Q H E E Q H. Q H. W
 
 |-------------|------------|------------|------|
 |-------------|------------|------------|------|
 |-x---------x-|-x----------|-x----------|------|
 |-x---------x-|-x----------|-x----------|------|

Q Q E E E E Q Q E E E E Q Q E E Q Q Q Q Q
 
 |---------------|---------------------------|--------------|-------------||
 |-x--x--x-x-x-x-|--x----x----x---x---x---x--|-x--x--x-x-x--|-x--x--x--x--||
 |-x--x--x-x-x-x-|--x----x----x---x---x---x--|-x--x--x-x-x--|-x--x--x--x--||
 |-3--3--3-3-3-3-|-(x)--(x)--(x)-(x)-(x)-(x)-|-0--0--0-0-0--|-x--x--x--x--||

Out-Chorus
Q=125
[E] [E] [E] [E] [E] [E] [E] [E] [E] [E] [E] [E] [E] [E] [E] [E]  
 
 ||--------------------------|-------------------------|
 ||o-------------------------|-------------------------|
 ||o-10-10-10-10-10-10-10-10-|-10----------------------|
 ||--------------------------|----10-10-10-10-10-10-10-|

[E] [E] [E] [E] [E] [E] [E] [E] [E] [E] [E] [E] [E] [E] [E] [E]  
 
 |-----------------|-------------------||
 |-----------------|------------------o||
 |-7-7-7-7-7-7-7-7-|-7----------------o||
 |-----------------|---8-8-8-8-8-8-8---||

[E] [E] [E] [E] [E] [E] [E] [E] [E] [E] [E] [E] [E] [E] [E] [E]  
 
 |-------------------------|-------------------------|
 |-------------------------|-------------------------|
 |-10-10-10-10-10-10-10-10-|-10----------------------|
 |-------------------------|----10-10-10-10-10-10-10-|

[E] [E] [E] [E] [E] [E] [E] [E] [E] [E] [E] [E] [E] [E] [E] [E]  
 
 |-----------------|-----------------|
 |-----------------|-----------------|
 |-----------------|-----------------|
 |-0-0-0-0-0-0-0-0-|-0-8-8-8-8-8-8-8-|

[E] [E] [E] [E] [E] [E] [E] [E] [E] [E] [E] [E] [E] [E] [E] [E]  
 
 ||--------------------------|-------------------------|
 ||o-------------------------|-------------------------|
 ||o-10-10-10-10-10-10-10-10-|-10----------------------|
 ||--------------------------|----10-10-10-10-10-10-10-|

[E] [E] [E] [E] [E] [E] [E] [E] [E] [E] [E] [E] [E] [E] [E] [E]  
 
 |-----------------|-------------------||
 |-----------------|------------------o||
 |-7-7-7-7-7-7-7-7-|-7----------------o||
 |-----------------|---8-8-8-8-8-8-8---||

Outro
Q=118
Q Q. Q E E E Q. Q E E E Q. Q E Q Q. Q E
 
 ||---------------|---------------|---------------|----------------||
 ||o-x-------x----|-x-x------x--x-|-x-x------x----|-x-------x-----o||
 ||o-x-------x----|-x-x------x--x-|-x-x------x----|-x-------x-----o||
 ||--x-------x----|-x-x------x--x-|-x-x------x----|-x-------x------||


Important: The song above is NOT stored on the Chordie server. The original song is hosted at www.guitartabs.cc. Chordie works as a search engine and provides on-the-fly formatting. Chordie does not index songs against artists'/composers' will. To remove this song please click here.

Text color:
Chord color:
Chord grids: 
Font size:    
Page size: 

E
Rate #1 of 4 versions

Login - add to songbook

SHARE PAGE  




You need to log in to post comments