Guitar Tabs, Chords and Lyrics
Login is temporarily disabled for some users. Do not panic. Will be back in an hour or two. DO NOT REREGISTER!!


Hypodermic  The Offspring

Subject: TAB: Hypodermic by The Offspring
from awilson@linden.msvu.ca
 
 -=-=-=-=-=-=-=-=-=-

Hypodermic by The Offspring
from Ignition
transcribed by Andy Wilson
 
 -=-=-=-=-=-=-=-=-=-

Heres an oldy but goody, There may be alot of mistakes since i've
only been playing guitar for 4 months, heres the jist of it though.
If it doesn't sound right play it an octave off.
Intro:
[G#] [E5] [B] [F#] [C#] [B]  
 
 |----------------------------------------------------------------
 |----------------------------------------------------------------
 |--12\-------------------------4-4-4---------------6-6-6--4-4----
 |--------6---6-6-6-6---2-2-2---4-4-4---4--4-4-4-4--6-6-6--4-4---- X 4
 |--------6---6-6-6-6---2-2-2---2-2-4---4--4-4-4-4--4-4-4--2-2----
 |--------4---4-4-4-4---0-0-0-----------2--2-2-2-2----------------

PM |.......................................................|
PRE-CHORUS:
[A] [E] [C] [D] [A]  
 
 |----------------------------------------------------------------
 |-----------------------------------------------------------------
 |------------------------9--5---------------7--------------------
 |---7--------------------9--5---------------7---7----------------
 |---7--------------------7--3---------------5---7----------------
 |---5-------------------------------------------5----------------

can't you see like you saw anymore...
[F] [G]  
 
 |----------------------------------------------------------------
 |----------------------------------------------------------------
 |----10-----------------12---------------------------------------
 |----10-----------------12---------------------------------------
 |----8------------------10---------------------------------------
 |----------------------------------------------------------------

when lifes a waste run away yeah...
Chorus
[A] [C] [D] [A] [E] [D] [F] [G]  
 
 |------------------------------------------|----------------------
 |------------------------------------------|----------------------
 |---------------3--7---------------7--7----|-----10-----12--------
 |---7-7-7-7-----3--7----7-7-7-7----7--7----|-----10-----12--------
 |---7-7-7-7-----5--5----7-7-7-7----9--5----|-----8------10--------
 |---5-5-5-5-------------5-5-5-5------------|----------------------

go back to intro riff
Outro
[A] [C] [D] [A] [D#] [E] [F]  
 
 ----------------------------------------------------------------
 ----------------------------------------------------------------
 --------------3--7-----------8--9--10---------------------------
 ---7-7-7-7----3--7-----7-7---8--9--10---------------------------
 ---7-7-7-7----5--5-----7-7---6--7--8----------------------------
 ---5-5-5-5-------------5-5--------------------------------------

adlib out guit 1 + 2

Important: The song above is NOT stored on the Chordie server. The original song is hosted at www.guitartabs.cc. Chordie works as a search engine and provides on-the-fly formatting. Chordie does not index songs against artists'/composers' will. To remove this song please click here.

Text color:
Chord color:
Chord grids: 
Font size:    
Page size: 

A B C C# D D# E E5 F F# G G#
Rate #1 of 4 versions

Jango Player

Login - add to songbook

SHARE PAGE  



You need to log in to post comments