Guitar Tabs, Chords and Lyrics
Login is temporarily disabled for some users. Do not panic. Will be back in an hour or two. DO NOT REREGISTER!!


Rise and Fall   The Offspring

 
 G|-----------------------------|
 D|-----------------------------|
 A|----------55---555------77---|
 E|-3335~-555--55----5~-555--55-|

 


 


 Verse


 "This time you're really dead..."


 2.


 

 
 G|------------------------------------------------------|
 D|------------------------------------------------------|
 A|--------------555-----------------------555------77---|
 E|-3335x-----------5x--------3335x-----------5~-555--55-|

 


 


 "Its all inside your head..."


 3.


 

 
 G|----------------------------------------------------------|
 D|----------------------------------------------------------|
 A|--------------555-----------------------555------77-------|
 E|-3335x-----------5x--------3335x-----------5~-555--55-3-3-|

 


 


 Chorus


 "And I dont wanna say I told you so..."


 4.


 

 
 G|-----------------------------------------------------------------|
 D|-----------------------------------------------------------------|
 A|-55-5555-5555-55-00-0000-0000-00-77-7777-7777-77-00-0000-0000-00-|
 E|-----------------------------------------------------------------|

 


 


 "And I dont wanna be the rise and fall..."


 5.


 

 
 G|----------------------------------------------------|
 D|----------------------------------------------------|
 A|-55-5555-5555-55-00-0000-0000-00-77-7777-7777-77-0x-|
 E|----------------------------------------------------|

 


 


 Outro


 6.


 

 
 G|-----------------------------|
 D|-----------------------------|
 A|----------55---555------77---|
 E|-3335~-555--55----5~-555--55-|

 


 


 Verse


 "You're in an awful way..."


 7.


 

 
 G|------------------------------------------------------|
 D|------------------------------------------------------|
 A|--------------555-----------------------555------77---|
 E|-3335x-----------5x--------3335x-----------5~-555--55-|

 


 


 "And you can only laugh..."


 8.


 

 
 G|----------------------------------------------------------|
 D|----------------------------------------------------------|
 A|--------------555-----------------------555------77-------|
 E|-3335x-----------5x--------3335x-----------5~-555--55-3-3-|

 


 


 Chorus


 "And I dont wanna say I told you so..."


 9.


 

 
 G|-----------------------------------------------------------------|
 D|-----------------------------------------------------------------|
 A|-55-5555-5555-55-00-0000-0000-00-77-7777-7777-77-00-0000-0000-00-|
 E|-----------------------------------------------------------------|

 


 


 "And I dont wanna be the rise and fall..."


 10.


 

 
 G|-------------------------------------------------|
 D|-------------------------------------------------|
 A|-55-5555-5555-55-00-0000-0000-00-77-7777-7777-77-|
 E|-------------------------------------------------|

 


 


 Outro


 11.


 

 
 G|--------------------------|
 D|--------------------------|
 A|---55---555------77-------|
 E|-55--55----5~-555--55-3-3-|

 


 


 Bridge


 12.


 

 
 G|-----------------------------------------------------------------|
 D|-----------------------------------------------------------------|
 A|-55-5555-5555-55-00-0000-0000-00-77-7777-7777-77-00-0000-0000-00-|
 E|-----------------------------------------------------------------|

 


 


 13.


 

 
 G|-------------------------------------------------|
 D|-------------------------------------------------|
 A|-55-5555-5555-55-00-0000-0000-00-77-7777-7777-77-|
 E|-------------------------------------------------|

 


 


 Verse


 "They've come to see you rise and fall..."


 14.


 

 
 G|-----------------------------------------------------------------------------------------------|
 D|-----------------------------------------------------------------------------------------------|
 A|--------------555------77----------------555------77----------------555------77-----------55---|
 E|-3335x-----------5~-555--55-3335x-----------5~-555--55-3335x-----------5~-555--55-3335x-----5x-|

 


 


 Chorus


 "And I dont wanna say I told you so..."


 15.


 

 
 G|-----------------------------------------------------------------|
 D|-----------------------------------------------------------------|
 A|-55-5555-5555-55-00-0000-0000-00-77-7777-7777-77-00-0000-0000-00-|
 E|-----------------------------------------------------------------|

 


 


 "And I dont wanna be the rise and fall..."


 16.


 

 
 G|-------------------------------------------------|
 D|-------------------------------------------------|
 A|-55-5555-5555-55-00-0000-0000-00-77-7777-7777-77-|
 E|-------------------------------------------------|

 


 


 Outro


 17.


 

 
 G|--------------------------------------------------|
 D|--------------------------------------------------|
 A|---55---555------77------------55---555------77---|
 E|-55--55----5~-555--55-3335~-555--55----5~-555--55-|

 


 


 18.


 

 
 G|--------------------|
 D|--------------------|
 A|--------------555---|
 E|-3335~-----------5x-|


Important: The song above is NOT stored on the Chordie server. The original song is hosted at www.guitartabs.cc. Chordie works as a search engine and provides on-the-fly formatting. Chordie does not index songs against artists'/composers' will. To remove this song please click here.

This song is displayed as text-only. Transposing and tuning is only available for chordpro-songs.
Rate #1 of 1 versions

Jango Player

Login - add to songbook

SHARE PAGE  



You need to log in to post comments