Guitar Tabs, Chords and Lyrics
Login is temporarily disabled for some users. Do not panic. Will be back in an hour or two. DO NOT REREGISTER!!


The Worst Hangover Ever   The Offspring

 
 G|-----------------------------------------------------------|
 D|--------44---------------------------44--------------------|
 A|----4-6----6-4-4~----4-22-1------4-6----6-4-4~----4-22-1---|
 E|-22----------------4--------4-22----------------4--------4-|

 


 


 2.


 

 
 G|---------------6~----6-44-3--------------------------------|
 D|--------44---------6--------6-44---------------------------|
 A|----4-6----6-4-------------------6-4----2-4-4~----4-22-1---|
 E|-22----------------------------------22---------4--------4-|

 


 


 Verse


 "Went out drinking late last night..."


 3.


 

 
 G|-----------------------------------------------------------|
 D|-----------------------------------------------------------|
 A|----4h6p4------4~----4-22-1------4h6p4------4~----4-22-1---|--x2
 E|-22----------------4--------4-22----------------4--------4-|

 


 


 Chorus


 "I've got the worst hangover ever..."


 4.


 

 
 G|-----------------------------------------------------------|
 D|--------44---------------------------44--------------------|
 A|----4-6----6-4-4~----4-22-1------4-6----6-4-4~----4-22-1---|
 E|-22----------------4--------4-22----------------4--------4-|

 


 


 "It hurts so bad that Im never gonna drink again..."


 5.


 

 
 G|---------------6~----6-44-3--------------------------------|
 D|--------44---------6--------6-44---------------------------|
 A|----4-6----6-4-------------------6-4----2-4-4~----4-22-1---|
 E|-22----------------------------------22---------4--------4-|

 


 


 Verse


 "And by my seventh shot..."


 6.


 

 
 G|-----------------------------------------------------------|
 D|-----------------------------------------------------------|
 A|----4h6p4------4~----4-22-1------4h6p4------4~----4-22-1---|--x2
 E|-22----------------4--------4-22----------------4--------4-|

 


 


 Chorus


 "I've got the worst hangover ever..."


 7.


 

 
 G|-----------------------------------------------------------|
 D|--------44---------------------------44--------------------|
 A|----4-6----6-4-4~----4-22-1------4-6----6-4-4~----4-22-1---|
 E|-22----------------4--------4-22----------------4--------4-|

 


 


 "Im worked so bad that Im never gonna drink again..."


 8.


 

 
 G|---------------6~----6-44-3--------------------------------|
 D|--------44---------6--------6-44---------------------------|
 A|----4-6----6-4-------------------6-4----2-4-4~----4-22-1---|
 E|-22----------------------------------22---------4--------4-|

 


 


 Bridge


 "Wont someone just kill me..."


 9.


 

 
 G|-------------------------------------------------------|
 D|-------------------------------------------------------|
 A|-11111111-22222222------1-4------1-4------1-4------1-4-|
 E|-------------------2x-------2x-------2x-------2x-------|

 


 


 "Im making deals with god, Ill do anything..."


 10.


 

 
 G|----------------------------------------------|
 D|----------6666--------------------------------|
 A|----46666-----6666-4x---4x-----4x---4x-----9\-|
 E|-444------------------------------------------|

 


 


 11.


 

 
 G|-----------------------------------------------------------|
 D|-----------------------------------------------------------|
 A|----4h6p4------4~----4-22-1------4h6p4------4~----4-22-1---|
 E|-22----------------4--------4-22----------------4--------4-|

 


 


 12.


 

 
 G|--------------------------------------------6~----6-44-3---|
 D|------------------------------------------------6--------6-|
 A|----4h6p4------4~----4-22-1------4h6p4---------------------|
 E|-22----------------4--------4-22---------------------------|

 


 


 Chorus


 "I've got the worst hangover ever..."


 13.


 

 
 G|-----------------------------------------------------------|
 D|--------44---------------------------44--------------------|
 A|----4-6----6-4-4~----4-22-1------4-6----6-4-4~----4-22-1---|
 E|-22----------------4--------4-22----------------4--------4-|

 


 


 "It hurts so bad that Im never gonna drink again..."


 14.


 

 
 G|---------------6~----6-44-3--------------------------------|
 D|--------44---------6--------6-44---------------------------|
 A|----4-6----6-4-------------------6-4----2-4-4~----4-22-1---|
 E|-22----------------------------------22---------4--------4-|

 


 


 "I may not ever drink again..."


 15.


 

 
 G|--------------------------------------------6~----6-44-3-4-|
 D|--------44---------------------------44---------6----------|
 A|----4-6----6-4-4~----4-22-1------4-6----6-4----------------|
 E|-22----------------4--------4-22---------------------------|

 


 


 "Im never gonna drink again..."


 16.


 

 
 G|-------------------------------------|
 D|-------------------------------------|
 A|-11111111-22222222-------------------|
 E|-------------------2~----------------|


Important: The song above is NOT stored on the Chordie server. The original song is hosted at www.guitartabs.cc. Chordie works as a search engine and provides on-the-fly formatting. Chordie does not index songs against artists'/composers' will. To remove this song please click here.

This song is displayed as text-only. Transposing and tuning is only available for chordpro-songs.
Rate #1 of 1 versions

Login - add to songbook

SHARE PAGE  



You need to log in to post comments