Guitar Tabs, Chords and Lyrics
Server problems seems to be fixed. Chordie has been experiencing problems with songs disappearing. These issues now seems to be fixed, but still verifying the fix. If you find anything strange, please email admin@chordie.com.


You and Me  One Night Only

 
 ------------------------------------------------------------

You And Me - One Night Only
 
 ------------------------------------------------------------

Song Title: You And Me
Artist: One Night Only
Album: Started A Fire
Tabbed by: Tom Rowell (ScreamAim&Fire)
Tuning: Standard EADGBe
Chords:
C (01023x)
D7 (x3545x)
F (01230x)
C#7 (x2434x)
Am (01220x)
G (330023)
 
 e|---------12---------------------12-----------------|
 B|------13---13-15-13---13-----13---13-15-13---------|
 G|---12---------------14----12---------------14------|
 D|---------------------------------------------------|
 A|---------------------------------------------------|
 E|---------------------------------------------------|
 e|---------13-------13h15p13-12----------------------|
 B|------13---13---13------------13----13-15-13----13-|
 G|---14---------14-----------------12----------14----|
 D|---------------------------------------------------|
 A|---------------------------------------------------|
 E|---------------------------------------------------| X2

[C]People say, [D7]I only hear what I want to[F]
That much is [C]true,
[C]People say, [D7]I only see what I want to[F]
So why do I see y[C]ou?
D7 D7 D7 D7 D7 D7 D7 C#7 x2
[C]You and me,[D7] equality,
[F]That's how it should be,[C] you and me,
[C]You and me,[D7] equality,
[F]That's how it should be,[C] you and me,
[C] [Am] [F] [G]  
[C]People say, [Am]that I creep you out
[F]No understanding, [G]no cash in hand
[C]But all I see,[Am] is apparently
[F]What do they know [G]about you and me?
[C]You and me,[D7] equality,
[F]That's how it should be,[C] you and me,
[C]You and me,[D7] equality,
[F]That's how it should be,[C] you and me,
D7 x32
[C]You and me,[D7] equality,
[F]That's how it should be,[C] you and me,
[C]You and me,[D7] equality,
[F]That's how it should be,[C] you and me,
[C] [Am] [F] [G]  
[C]People say, [Am]that I creep you out
[F]No understanding, [G]no cash in hand
[C]But all I see,[Am] is apparently
[F]What do they know [G]about you and me?

Important: The song above is NOT stored on the Chordie server. The original song is hosted at www.guitartabs.cc. Chordie works as a search engine and provides on-the-fly formatting. Chordie does not index songs against artists'/composers' will. To remove this song please click here.

Text color:
Chord color:
Chord grids: 
Font size:    
Page size: 

Am C D7 F G
Rate #1 of 4 versions

Jango Player

Login - add to songbook

SHARE PAGE  



You need to log in to post comments