Guitar Tabs, Chords and Lyrics
Update 25:10. 13:00. Site is back up running again. Songbooks are recovered. Woring on getting search back up..


Countdown√Ę??s Begun   Ozzy Osbourne

 
 E|---------------------------------------------------------------|
 B|---------------------------------------------------------------|
 G|o-------------------------------------------------------------o|
 D|o-------------------------------------------------------------o|
 A|----7---5----5----3---3----7---5----5-----10-----------12------|
 D|--7---7----7----5---5----7---7----7---/12----12--12/14----14---|

 


 


 Verse #1: 6X


 

 
 E|-----------------------------------------------------------------------|
 B|-----------------------------------------------------------------------|
 G|o---------------------------------------------------------------------o|
 D|o-----------2-2-2-2-2-2-2-5-------------------2-2-2-2-2-2-2--5-5--5-5-o|
 A|--5b(6r5)-3-0-0-0-0-0-0-0-3--3b(.5)-5b(6r5)-3-0-0-0-0-0-0-0--3-3--5-5--|
 D|--------------2-2-2-2-2-2-----------------------2-2-2-2-2-2-------5-5--|
 P.M-------- P.M--------

 


 


 Pre-chorus: 3X (Pick scrape into chorus)


 

 
 E|----------------------------| |-----------------------|
 B|----------------------------| |-----------------------|
 G|o--------------------------o| |-----------------------|
 D|o-5--5----0--0-0-0-0-0-0-0-o| |-\\\\\\\\\\\\\\\\\\\\\-|
 A|--3--2----0--0-0-0-0-0-0-0--| |-\\\\\\\\\\\\\\\\\\\\\-|
 D|----------0--0-0-0-0-0-0-0--| |-\\\\\\\\\\\\\\\\\\\\\-|
 P.M----------

 


 


 Chorus: 4X


 

 
 E|----------------------------|
 B|----------------------------|
 G|o--------------------------o|
 D|o-------5------------------o|
 A|--0--7-----5b(.5r5)--3-0----|
 D|-------------------------5--|

 


 


 *(The bridge to this song is the intro)*


 


 Solo:


 

 
 E|---------------------------------------------------------|
 B|-------5-8-------5-8-------5-8-------5-8-------5-8p5---5-|
 G|-7b(8)-----7b(8)-----7b(8)-----7b(8)-----7b(8)-------7---|
 D|---------------------------------------------------------|
 A|---------------------------------------------------------|
 D|---------------------------------------------------------|
 E|---------------------------------------|
 B|-8b(9)--8b(9)--8b(9)--8b(9)------------|
 G|---------------------------------------|
 D|---------------------------------------|
 A|---------------------------------------|
 D|------------------------------17\--17\-|

 


 


 (5X)


 

 
 [-------------]
 E|---------15-15-12-15b(17)--15b(17)~---|
 B|-15b(16)------------------------------|
 G|--------------------------------------|
 D|--------------------------------------|
 A|--------------------------------------|
 D|--------------------------------------|

 


 


 (4X - very fast) (4X - very fast)


 

 
 [-----------------][-----------------]
 E|-17h20p17---------------------------------------------------------|
 B|----------17h20p17--17h20p17-----------20b(22)--20b(22)--20b(22)~-|
 G|-----------------------------17h19p17-----------------------------|
 D|------------------------------------------------------------------|
 A|------------------------------------------------------------------|
 D|------------------------------------------------------------------|

 


 


 Verse #2: 4X


 T T T


 

 
 E|-----------------------------------|
 B|-----------------------------------|
 G|o-7b(8r7b8--10--p7-12---10---r)--o-|
 D|o--------------------------------o-|
 A|-----------------------------------|
 D|-----------------------------------|

 


 (hold this bend up *


 the whole time and /


 

 
 then release it here)------/


Important: The song above is NOT stored on the Chordie server. The original song is hosted at www.guitartabs.cc. Chordie works as a search engine and provides on-the-fly formatting. Chordie does not index songs against artists'/composers' will. To remove this song please click here.

This song is displayed as text-only. Transposing and tuning is only available for chordpro-songs.
Rate #1 of 2 versions

Login - add to songbook

SHARE PAGE  



You need to log in to post comments