Guitar Tabs, Chords and Lyrics
Major upgrade!! After one year development the new version of Chordie is now online! Please give feedback.


Floods  Pantera

FLOODS
As recorded by Pantera
Transcribed by Doetje2
Gtr I (C# F# B E G# C#) - 'Untitled'
Gtr II (C# F# B E G# C#) - 'Untitled'
Gtr III (C# F# B E G# C#) - 'Untitled'
Gtr IV (C# F# B E G# C#) - 'Untitled'
Intro
Slowly Q=60
[C#m] [E+/B#] [C#m] [E+/B#] 
[4/4] Gtr I
 
 |---------------------------------|----------------------------------|
 |---------------------------------|----------------------------------|
 |-------0-(0)-------------0-------|-------0-(0)-------------0--------|
 |-----6-------6-------6-----6-----|-----6-------6-------6-----6------|
 |---7-------------------7-----7---|---7-------------------7-----7----|
 |-9-------------8-(8)-----------8-|-9-------------8-(8)-----------8--|

[C#m] [E+/B#] [E/G#] [G] [E]  
 
 |-----------------------------------|--------------0-(0)-------||
 |-----------------------------------|--------------0-(0)-------||
 |-------0-(0)---------------0-------|--------------1-(1)-------||
 |-----6-------6---------6-----6-----|------2-----0-2-(2)-------||
 |---7-----------------7---7-----7---|----2-----2---2-(2)-------||
 |-9-------------8-(8)-------------0-|-/4-----3-----0-(0)-------||

|
| Gtr II
| \7
 
 |-----------------------------------|--------------------------||
 |-----------------------------------|--------------------------||
 |-----------------------------------|--------------------------||
 |-----------------------------------|------2-----0-2-(2)-------||
 |-----------------------------------|----2-----2---2-(2)-------||
 |---------------------------------0-|-/4-----3-----0-(0)--(0)--||

Verses 1 & 2
[C#m] [E+/B#] [C#m] [E+/B#]  
 
 ||----------------------------------|----------------------------------|
 ||o---------------------------------|----------------------------------|
 ||--------0-(0)-------------0-------|-------0-(0)-------------0--------|
 ||------6-------6-------6-----6-----|-----6-------6-------6-----6------|
 ||o---7-------------------7-----7---|---7-------------------7-----7----|
 ||--9-------------8-(8)-----------8-|-9-------------8-(8)-----------8--|

[C#m] [E+/B#] [C#m] [E+/B#]  
 
 |---------------------------------|---------------------------------|
 |---------------------------------|---------------------------------|
 |-------0-(0)-------------0-------|-------0-(0)-------------0-------|
 |-----6-------6-------6-----6-----|-----6-------6-------6-----6-----|
 |---7-------------------7-----7---|---7-------------------7-----7---|
 |-9-------------8-(8)-----------8-|-9-------------8-(8)-----------8-|

[C#m] [E+/B#] [C#m] [E+/B#]  
 
 |---------------------------------|---------------------------------|
 |---------------------------------|---------------------------------|
 |-------0-(0)-------------0-------|-------0-(0)-------------0-------|
 |-----6-------6-------6-----6-----|-----6-------6-------6-----6-----|
 |---7-------------------7-----7---|---7-------------------7-----7---|
 |-9-------------8-(8)-----------8-|-9-------------8-(8)-----------8-|

[C#m] [E+/B#] [E/G#] [G] [E]  
 
 |-----------------------------------|--------------0-(0)-------|
 |-----------------------------------|--------------0-(0)-------|
 |-------0-(0)---------------0-------|--------------1-(1)-------|
 |-----6-------6---------6-----6-----|------2-----0-2-(2)-------|
 |---7-----------------7---7-----7---|----2-----2---2-(2)-------|
 |-9-------------8-(8)-------------0-|-/4-----3-----0-(0)-------|

|
| Gtr II
| \7
 
 |-----------------------------------|--------------------------|
 |-----------------------------------|--------------------------|
 |-----------------------------------|--------------------------|
 |-----------------------------------|------2-----0-2-(2)-------|
 |-----------------------------------|----2-----2---2-(2)-------|
 |---------------------------------0-|-/4-----3-----0-(0)--(0)--|

[C#m] [E+/B#] [C#m] [E+/B#]  
 
 |---------------------------------|---------------------------------|
 |---------------------------------|---------------------------------|
 |-------0-(0)-------------0-------|-------0-(0)-------------0-------|
 |-----6-------6-------6-----6-----|-----6-------6-------6-----6-----|
 |---7-------------------7-----7---|---7-------------------7-----7---|
 |-9-------------8-(8)-----------8-|-9-------------8-(8)-----------8-|

[C#m] [E+/B#] [E/G#] [G] [E]  
 
 |-----------------------------------|--------------0-(0)--------|
 |-----------------------------------|--------------0-(0)--------|
 |-------0-(0)---------------0-------|--------------1-(1)--------|
 |-----6-------6---------6-----6-----|------2-----0-2-(2)--------|
 |---7-----------------7---7-----7---|----2-----2---2-(2)--------|
 |-9-------------8-(8)-------------0-|-/4-----3-----0-(0)--------|

|
| Gtr II
 
 |-----------------------------------|---------------------------|
 |-----------------------------------|---------------------------|
 |-----------------------------------|---------------------------|
 |-----------------------------------|------2-----0-2-(2)--(2)---|
 |-----------------------------------|----2-----2---2-(2)--(2)---|
 |---------------------------------0-|-/4-----3-----0-(0)--(0)-0-|
 |--------------0-(0)---0--0--||
 |--------------0-(0)---0--0--||
 |--------------1-(1)---1--1--||
 |------2-----0-2-(2)---2--2--||
 |----2-----2---2-(2)---2--2--||
 |-/4-----3-----0-(0)---0--0--||

|
| \7
 
 |----------------------------||
 |----------------------------||
 |----------------------------||
 |------2-----0-2-(2)---------||
 |----2-----2---2-(2)---------||
 |-/4-----3-----0-(0)--(0)----||

Bridges 1 & 2
[C#m9] [Am9] [C#m9] [Am9]  
 
 |-0-0-0-0---0-(0)-0-0-0-0-0-----|-0-0-0-0---0-(0)-0-0-0-0-0-----|
 |-0-0-0-0---0-(0)-0-0-0-0-0-----|-0-0-0-0---0-(0)-0-0-0-0-0-----|
 |-8-8-8-8-x-5-(5)-5-5-5-5-5-x-x-|-8-8-8-8-x-5-(5)-5-5-5-5-5-x-x-|
 |-6-6-6-6-x-2-(2)-2-2-2-2-2-x-x-|-6-6-6-6-x-2-(2)-2-2-2-2-2-x-x-|
 |-4-4-4-4-x-0-(0)-0-0-0-0-0-x-x-|-4-4-4-4-x-0-(0)-0-0-0-0-0-x-x-|
 |-------------------------------|-------------------------------|

1.
[C#m9] [Am9] [E9] [F#m11] 
[5/4]  
 
 |-0-0-0-0---0-(0)-0-0-0-0-0-----|--0--0--0--0--0--0--0--(0)-----(0)---||
 |-0-0-0-0---0-(0)-0-0-0-0-0-----|--0--0--0--0--0--0--0--(0)-----(0)--o||
 |-8-8-8-8-x-5-(5)-5-5-5-5-5-x-x-|-11-11-11-11-11-11-13-(13)----(13)---||
 |-6-6-6-6-x-2-(2)-2-2-2-2-2-x-x-|--9--9--9--9--9--9-11-(11)----(11)---||
 |-4-4-4-4-x-0-(0)-0-0-0-0-0-x-x-|--7--7--7--7--7--7--9--(9)-----(9)--o||
 |-------------------------------|-------------------------------------||

2.
[E9] [F#m11] [C#m9] [Am9] 
[4/4]  
 
 |--0--0--(0)--0--0--0--0--0--0-0-|-0-0-0-0---0-(0)-0-0-0-0-0-----|
 |--0--0--(0)--0--0--0--0--0--0-0-|-0-0-0-0---0-(0)-0-0-0-0-0-----|
 |-11-11-(11)-13-13-13-13-13-14---|-8-8-8-8-x-5-(5)-5-5-5-5-5-x-x-|
 |--9--9--(9)-11-11-11-11-11-11---|-6-6-6-6-x-2-(2)-2-2-2-2-2-x-x-|
 |--7--7--(7)--9--9--9--9--9--9---|-4-4-4-4-x-0-(0)-0-0-0-0-0-x-x-|
 |--------------------------------|-------------------------------|

[C#m9] [Am9] [C#m9] [Am9]  
 
 |-0-0-0-0---0-(0)-0-0-0-0-0-----|-0-0-0-0---0-(0)-0-0-0-0-0-----|
 |-0-0-0-0---0-(0)-0-0-0-0-0-----|-0-0-0-0---0-(0)-0-0-0-0-0-----|
 |-8-8-8-8-x-5-(5)-5-5-5-5-5-x-x-|-8-8-8-8-x-5-(5)-5-5-5-5-5-x-x-|
 |-6-6-6-6-x-2-(2)-2-2-2-2-2-x-x-|-6-6-6-6-x-2-(2)-2-2-2-2-2-x-x-|
 |-4-4-4-4-x-0-(0)-0-0-0-0-0-x-x-|-4-4-4-4-x-0-(0)-0-0-0-0-0-x-x-|
 |-------------------------------|-------------------------------|

[E9] [F#m11]  
 
 |--0--0--0--0--0--0--0--(0)--0--0--0--0--0--0--0-|
 |--0--0--0--0--0--0--0--(0)--0--0--0--0--0--0--0-|
 |-11-11-11-11-11-11-13-(13)-13-13-13-13-14-14-14-|
 |--9--9--9--9--9--9-11-(11)-11-11-11-11-11-11-11-|
 |--7--7--7--7--7--7--9--(9)--9--9--9--9--9--9--9-|
 |------------------------------------------------|

[B11]  
 
 |--(0)--0--0--0--0--0--0--0--(0)--0--0--0--0--0-0--|
 |--(0)--0--0--0--0--0--0--0--(0)--0--0--0--0--0-0--|
 |-(14)-11-11-11-11-13-13-13-(13)--9--9--9--9-11-8--|
 |-(11)-11-11-11-11-11-11-11-(11)-11-11-11-11-11-9--|
 |--(9)--9--9--9--9--9--9--9--(9)--9--9--9--9--9-9--|
 |--------------------------------------------------|

[E/G#] [G] [E] [E/G#] [G] [E] 
[2/4] [4/4]  
 
 |-(0)--(0)---|--------------0-(0)--(0)---|--------------0-(0)--------||
 |-(0)--(0)---|--------------0-(0)--(0)---|--------------0-(0)--------||
 |-(8)--(8)---|--------------1-(1)--(1)---|--------------1-(1)--------||
 |-(9)--(9)---|------2-----0-2-(2)--(2)---|------2-----0-2-(2)--------||
 |-(9)--(9)---|----2-----2---2-(2)--(2)---|----2-----2---2-(2)--------||
 |----------0-|-/4-----3-----0-(0)--(0)-0-|-/4-----3-----0-(0)--------||

|
| Gtr II
| /
 
 |------------|---------------------------|---------------------------||
 |------------|---------------------------|---------------------------||
 |------------|---------------------------|---------------------------||
 |------------|------2-----0-2-(2)--(2)---|------2-----0-2-(2)--(2)---||
 |------------|----2-----2---2-(2)--(2)---|----2-----2---2-(2)--(2)---||
 |----------0-|-/4-----3-----0-(0)--(0)-0-|-/4-----3-----0-(0)--(0)---||

Interlude
$
[F#5]  
[4/4] Gtr III
\0.5/ \0.5/ \0.5/ \0.5/
 
 ||------------------------------------------------------------|
 ||o-----------------------------------------------------------|
 ||------------------------------------------------------------|
 ||---4--(4)----(4)--4-(4)----(4)--4-(4)----(4)--4-(4)----(4)--|
 ||o--4--(4)----(4)--4-(4)----(4)--4-(4)----(4)--4-(4)----(4)--|
 ||---2--(2)----(2)--2-(2)----(2)--2-(2)----(2)--2-(2)----(2)--|

|
| Gtr II
 
 ||------------------------------------------------------------|
 ||o-----------------------------------------------------------|
 ||------------------------------------------------------------|
 ||--(2)-------------------------------------------------------|
 ||o-(2)-------------------------------------------------------|
 ||--(0)-------------------------------------------------------|

\0.5/ [G5F#5] \0.5/ [A#5] \3
 
 |----------------------------------------|
 |----------------------------------------|
 |----------------------------------------|
 |--4--(4)----(4)--5-4-(4)----(4)s8--(8)--|
 |--4--(4)----(4)--5-4-(4)----(4)s8--(8)--|
 |--2--(2)----(2)--3-2-(2)----(2)s6--(6)--|

|
 
 |----------------------------------------|
 |----------------------------------------|
 |----------------------------------------|
 |-(2)------------------------------------|
 |-(2)------------------------------------|
 |-(0)------------------------------------|

[E5] \0.5/ \0.5/ \0.5/ \0.5/
 
 |---------------------------------------------------------|
 |---------------------------------------------------------|
 |---------------------------------------------------------|
 |-2-(2)----(2)--2-(2)----(2)--2-(2)----(2)--2-(2)----(2)--|
 |-2-(2)----(2)--2-(2)----(2)--2-(2)----(2)--2-(2)----(2)--|
 |-0-(0)----(0)--0-(0)----(0)--0-(0)----(0)--0-(0)----(0)--|

|
 
 |---------------------------------------------------------|
 |---------------------------------------------------------|
 |---------------------------------------------------------|
 |---------------------------------------------------------|
 |---------------------------------------------------------|
 |---------------------------------------------------------|

\0.5/ \0.5/ \0.5/[G#5]
 
 |---------------------------------------------|
 |---------------------------------------------|
 |---------------------------------------------|
 |-2-(2)----(2)--2-(2)----(2)-(2)----(2)-/6----|
 |-2-(2)----(2)--2-(2)----(2)-(2)----(2)-/6----|
 |-0-(0)----(0)--0-(0)----(0)-(0)----(0)-/4----|

|
| /
 
 |---------------------------------------------|
 |---------------------------------------------|
 |---------------------------------------------|
 |------------------------------------------2--|
 |------------------------------------------2--|
 |------------------------------------------0--|

[F#5]Gtr III
\0.5/ \0.5/ \0.5/ \0.5/
 
 |-----------------------------------------------------------|
 |-----------------------------------------------------------|
 |-----------------------------------------------------------|
 |--4--(4)----(4)--4-(4)----(4)--4-(4)----(4)--4-(4)----(4)--|
 |--4--(4)----(4)--4-(4)----(4)--4-(4)----(4)--4-(4)----(4)--|
 |--2--(2)----(2)--2-(2)----(2)--2-(2)----(2)--2-(2)----(2)--|

|
| Gtr II
 
 |-----------------------------------------------------------|
 |-----------------------------------------------------------|
 |-----------------------------------------------------------|
 |-(2)-------------------------------------------------------|
 |-(2)-------------------------------------------------------|
 |-(0)-------------------------------------------------------|

\0.5/ [G5F#5] \0.5/ [A#5] \3
 
 |---------------------------------------|
 |---------------------------------------|
 |---------------------------------------|
 |--4--(4)----(4)--5-4-(4)----(4)s8--(8)-|
 |--4--(4)----(4)--5-4-(4)----(4)s8--(8)-|
 |--2--(2)----(2)--3-2-(2)----(2)s6--(6)-|

|
 
 |---------------------------------------|
 |---------------------------------------|
 |---------------------------------------|
 |-(2)-----------------------------------|
 |-(2)-----------------------------------|
 |-(0)-----------------------------------|

[E5] \0.5/ \0.5/ \0.5/ \0.5/
 
 |---------------------------------------------------------|
 |---------------------------------------------------------|
 |---------------------------------------------------------|
 |-2-(2)----(2)--2-(2)----(2)--2-(2)----(2)--2-(2)----(2)--|
 |-2-(2)----(2)--2-(2)----(2)--2-(2)----(2)--2-(2)----(2)--|
 |-0-(0)----(0)--0-(0)----(0)--0-(0)----(0)--0-(0)----(0)--|

|
 
 |---------------------------------------------------------|
 |---------------------------------------------------------|
 |---------------------------------------------------------|
 |---------------------------------------------------------|
 |---------------------------------------------------------|
 |---------------------------------------------------------|

[2/4] \0.5/ \0.5/
 
 |------------------------------||
 |-----------------------------o||
 |------------------------------||
 |-2-(2)----(2)--2-(2)----(2)---||
 |-2-(2)----(2)--2-(2)----(2)--o||
 |-0-(0)----(0)--0-(0)----(0)---||

|
| \0.5/ \0.5/
 
 |------------------------------||
 |-----------------------------o||
 |------------------------------||
 |-2-(2)----(2)--2-(2)----(2)---||
 |-2-(2)----(2)--2-(2)----(2)--o||
 |-0-(0)----(0)--0-(0)----(0)---||

To Coda
[F#G5] [E5F#G5F#5]  
[4/4] PM--| PM--|
 
 |------------------------|
 |------------------------|
 |------------------------|
 |-2-4-5-5-(5)-2-4-5-4----|
 |-2-4-5-5-(5)-2-4-5-4----|
 |-0-2-3-3-(3)-0-2-3-2----|

|
| PM--| PM--|
 
 |------------------------|
 |------------------------|
 |------------------------|
 |-2-4-5-5-(5)-2-4-5-4----|
 |-2-4-5-5-(5)-2-4-5-4----|
 |-0-2-3-3-(3)-0-2-3-2----|

5/8 7/8[Am7]
 
 |------------|-------------------------------|
 |------------|-------------------------------|
 |------------|-------------------------------|
 |-(4)--(4)---|-(4)-------(4)-----------------|
 |-(4)--(4)---|-(4)-------(4)-----------------|
 |-(2)--(2)---|-(2)-------(2)-----------------|

|
 
 |------------|-------------------------------|
 |------------|-------------------------------|
 |------------|-------------------------------|
 |-(4)--(4)---|-(4)-------(4)-----------------|
 |-(4)--(4)---|-(4)-------(4)-----------------|
 |-(2)--(2)---|-(2)-------(2)-----------------|

|
| Gtr I
 
 |------------|-------------------------------|
 |------------|---------0-(0)-------0h1-------|
 |------------|-------8-------8---------0-(0)-|
 |------------|-----6-------------2-----------|
 |------------|--4--------------0-------------|
 |------------|-------------------------------|

[ Tab from: bttp://www.guitartabs.cc/tabs/p/pantera/floods_tab_ver_3.btml ] 
4[C#m9]/4 [Am9] 7[C#m9]/8[Am7]
 
 |-----------------------|-----------------------------|
 |-----------------------|-----------------------------|
 |-----------------------|-----------------------------|
 |-----------------------|-----------------------------|
 |-----------------------|-----------------------------|
 |-----------------------|-----------------------------|

|
 
 |-----------------------|-----------------------------|
 |-----------------------|-----------------------------|
 |-----------------------|-----------------------------|
 |-----------------------|-----------------------------|
 |-----------------------|-----------------------------|
 |-----------------------|-----------------------------|

|
 
 |-----------------------|-----------------------------|
 |-------0-(0)-^0-(0)----|-------0-(0)-------0h1-------|
 |-----8-------^5-(5)----|-----8-------8---------0-(0)-|
 |---6---------^2-(2)----|---6-------------2-----------|
 |-4-----------^0-(0)----|-4-------------0-------------|
 |-----------------------|-----------------------------|

[C#m9] [Am9]  
[4/4]  
 
 |--------------------------||
 |--------------------------||
 |--------------------------||
 |--------------------------||
 |--------------------------||
 |---------------------16\--||

|
 
 |--------------------------||
 |--------------------------||
 |--------------------------||
 |--------------------------||
 |--------------------------||
 |--------------------------||

|
 
 |--------------------------||
 |-------0-(0)-^0-(0)-------||
 |-----8-------^5-(5)-------||
 |---6---------^2-(2)-------||
 |-4-----------^0-(0)-------||
 |--------------------------||

Guitar Solo
[C#m] PM ~~~~~~ ~~~ [A] ~~~~~~~~~~~~~
 
 |---------------------------------|--------------------------------------|
 |---------------------------------|--------------------------------------|
 |-----8---8h9-8-(8)-6h8p6p4-[6]---|--------------------------------------|
 |---6---6-------------------------|------[9]---9s13-[14]-(14)-[13]--[11]-|
 |-4-------------------------------|----7-----7---------------------------|
 |-------------------------------0-|-/5-----------------------------------|

[F#m]PM| PM ~~~~~~~ ~
 
 |------------------------------------|
 |------------------------------------|
 |------------------------------------|
 |-----6---[6]h[7]-[6]-(6)-4h6-4p2-4--|
 |---4---4----------------------------|
 |-2----------------------------------|

[B] ~~~
 
 |-----------------------------------------------|
 |-----------------------------------------------|
 |-----[6]---[6]b8-(6)-[6]-4h6p4p2-4-[4]b5-(4)---|
 |---4-----4-------------------------------------|
 |-2-------------------------------------------2-|
 |-----------------------------------------------|

[C#m] ~~~~~~~
 
 |------------------------------------------|
 |------------------------------------------|
 |-------8---8s9S11-(11)-[13]b14==(13)r[13]-|
 |-----6---6--------------------------------|
 |-2s4--------------------------------------|
 |------------------------------------------|

[A] PM PM ~~
 
 |----------------------------------------------------------------------|
 |----------------------------------------------------------------------|
 |----------------------------------------------------------------------|
 |------9---9s13-14-(14)-[13]b14==([13])r([13])-(13)-[13]pb14r([13])-11-|
 |----7---7-------------------------------------------------------------|
 |-/5-------------------------------------------------------------------|

[F#m]PM| PM ~~~~~~~ ~~~
 
 |--------------------------------------|
 |--------------------------------------|
 |--------------------------------------|
 |-----6---6b7-(6)-[6]-(6)-4-6p4p2-[4]--|
 |---4---4------------------------------|
 |-2------------------------------------|

[B]PM ~~~
 
 |------------------------------------------------|
 |------------------------------------------------|
 |-----[6]---[6]b8-(6)-[6]-4-6-4p2-4-[4]b5-(4)----|
 |---4-----4--------------------------------------|
 |-2----------------------------------------------|
 |------------------------------------------------|

[C#m]  
 
 |----------------------------------------------------------------------------------------------------------------------------------9-----|
 |12-----(12)-(12)----(12)-12------------12------------12-----------------12------------12------------12------------12p9-12b14-(12)---12p9|
 |11b13==(11)r(11)b13-(11)----11b13-(11)----11b13-(11)----11b13-(11)-(11)----11b13-(11)----11b13-(11)----11b13-(11)-----------------------|
 |----------------------------------------------------------------------------------------------------------------------------------------|
 |----------------------------------------------------------------------------------------------------------------------------------------|
 |----------------------------------------------------------------------------------------------------------------------------------------|

[A] ~~~~
 
 |---------------9-11-12-11b12==(11)-(11)-(11)r(11)-9-11p9----12----9-------------------------------|
 |-12b14-(12)-12-------------------------------------------12----12---12p9------------12------------|
 |-------------------------------------------------------------------------11b13-(11)----11b13-(11)-|
 |--------------------------------------------------------------------------------------------------|
 |--------------------------------------------------------------------------------------------------|
 |--------------------------------------------------------------------------------------------------|

[F#m]  
 
 |----------------------------------------------------------------------------------------------------|
 |-7--------------------------------------------------------------------------------------------------|
 |---12p11p9-11-11p9----11----9b11-9---------11----9---------11----9b9.5---------11----9b9.5----------|
 |-------------------11----11--------11-9-11----11---11-9-11----11-------11-9-11----11-------11-9-11--|
 |----------------------------------------------------------------------------------------------------|
 |----------------------------------------------------------------------------------------------------|

[B]Gtr III[B#]
~
 
 |--------------------------------------------------------------------|
 |--------------------------------------------------------------------|
 |--9--9s8----8-8s6---6-6s4---5b6==(5)r(5)-(5)------------------------|
 |-11-11s9--9-9-9s7-7-7-7s6-6-6b7==(6)r(6)-(6)------------------------|
 |---------11-------9-------7------------------7----------------------|
 |--------------------------------------------------------------------|

|
| Gtr II
 
 |------------------------------------------------14b16==(14)r(14)p12-|
 |--------------------------------------------------------------------|
 |--------------------------------------------------------------------|
 |--------------------------------------------------------------------|
 |--------------------------------------------------------------------|
 |--------------------------------------------------------------------|

[C#m]Gtr II
~~
 
 |14b16-14--(14)-14b16==(14)r(14)p12-16/p14b16==(14)r(14)p12-16/p14b16==(14)r(14)p12-16/p14b16==(14)r(14)p12-16/p14b16==(14)r(14)p12|
 |----------------------------------------------------------------------------------------------------------------------------------|
 |----------------------------------------------------------------------------------------------------------------------------------|
 |----------------------------------------------------------------------------------------------------------------------------------|
 |----------------------------------------------------------------------------------------------------------------------------------|
 |----------------------------------------------------------------------------------------------------------------------------------|

[A] ~~~~
 
 |-19b21-(19)---21b23-(21)-(21)-21pb24-(21)-21pb23-(21)-21pb24-(21)-21pb23-(21)-21pb24-(21)-21pb23==(21)r(21)-(21)-|
 |-----------------------------------------------------------------------------------------------------------------|
 |-----------------------------------------------------------------------------------------------------------------|
 |-----------------------------------------------------------------------------------------------------------------|
 |-----------------------------------------------------------------------------------------------------------------|
 |-----------------------------------------------------------------------------------------------------------------|

[F#m]Gtr III
 
 |------------17-------------17-------------17------------------17-------------------------------------------------------------|
 |16b17-(16)-----(16)-16pb17----(16)-16pb17----(16)-16pb17-(16)----(16)-16pb17--16b17==(16)r(16)p14----16------14--------------|
 |--------------------------------------------------------------------------------------------------16------16----16s14b16-(14)|
 |-----------------------------------------------------------------------------------------------------------------------------|
 |-----------------------------------------------------------------------------------------------------------------------------|
 |-----------------------------------------------------------------------------------------------------------------------------|

|
| Gtr II
 
 |-----------------------------------------------------------------------------------------------------------------------------|
 |-----------------------------------------------------------------------------------------------------------------------------|
 |-----------------------------------------------------------------------------------------------------------------------------|
 |--------9--------------------------------------------------------------------------------------------(9)\--------------------|
 |--------7--------------------------------------------------------------------------------------------(7)\--------------------|
 |-----------------------------------------------------------------------------------------------------------------------------|

[B] [A] [B]  
 
 |-----17-18-19----17-18-19----17-18-19----17-18-17----(17)--19----(19)-|
 |--19----19----19----------19----------19-------20b22-(20)--22b24-(22)-|
 |----------------------------------------------------------------------|
 |----------------------------------------------------------------------|
 |----------------------------------------------------------------------|
 |----------------------------------------------------------------------|

H.=H
[B#]  
 
 |-20------(20)-------------------|
 |-22b25.5-(22)-------------------|
 |--------------------------------|
 |--------------------------------|
 |--------------------------------|
 |--------------------------------|

|
| Gtr II
| /6_________\6____/6___
 
 |--------------------------------|
 |----------14--------(14)--(14)--|
 |--------------------------------|
 |--------------------------------|
 |--------------------------------|
 |--------------------------------|

D.S. al Coda
[3/4] \0.5__________/ \7
 
 |-------------------------------------------------------------------------||
 |-------------------------------------------------------------------------||
 |---------------------------------------0------------(x)--------(x)-------||
 |-------------------------------------------------------------------------||
 |-------------------------------------------------------------------------||
 |-------------------------------------------------------------------------||

|
| \6____/6____\6____/6____\6____/6____\6______/6____\6____/ \7
| ~~~~
 
 |-------------------------------------------------------------------------||
 |-(14)--(14)--(14)--(14)--(14)--(14)--(14)----(14)--(14)--(14)-(14)-(14)--||
 |-------------------------------------------------------------------------||
 |-------------------------------------------------------------------------||
 |-------------------------------------------------------------------------||
 |-------------------------------------------------------------------------||

&
[E5] [F#G5] [E5F#G5F#5] [E5F#G5] [E5F#G5F#5] 
[4/4]  
 
 PM---| PM--| PM--| PM--|

8x
 
 |--------------------------||-------------------------||
 |--------------------------||o-----------------------o||
 |--------------------------||-------------------------||
 |--2--4-5-5-(5)-2-4-5-4----||--2-4-5-5-(5)-2-4-5-4----||
 |--2--4-5-5-(5)-2-4-5-4----||o-2-4-5-5-(5)-2-4-5-4---o||
 |--0--2-3-3-(3)-0-2-3-2----||--0-2-3-3-(3)-0-2-3-2----||

|
| PM--| PM--|
| 8x
 
 |--------------------------||-------------------------||
 |--------------------------||o-----------------------o||
 |--------------------------||-------------------------||
 |-(4)----------------------||--2-4-5-5-(5)-2-4-5-4----||
 |-(4)----------------------||o-2-4-5-5-(5)-2-4-5-4---o||
 |-(2)----------------------||--0-2-3-3-(3)-0-2-3-2----||

PM--| PM--|
 
 |------------------------|--------||
 |------------------------|--------||
 |------------------------|--------||
 |-2-4-5-5-(5)-2-4-5-4----|-(4)----||
 |-2-4-5-5-(5)-2-4-5-4----|-(4)----||
 |-0-2-3-3-(3)-0-2-3-2----|-(2)----||

6/8
Gtr IV
 
 |-------------------------|-------------------------|
 |-------------------------|-------------------------|
 |-----8---8-6-------------|-----------------6---6-4-|
 |---6---6---------9---9-7-|-----4---4-6---4---4-----|
 |-4-------------7---7-----|---2---2-----2-----------|
 |-------------5-----------|-0-----------------------|
 |---------------------------|
 |---------------------------|
 |-----8---8s9---------------|
 |---6---6---------9---9s11--|
 |-4-------------7---7-------|
 |-------------5-------------|
 |---------------------------------|
 |---------------------------------|
 |-----11---11s13------13----13s14-|
 |---9----9---------11----11-------|
 |-7--------------9----------------|
 |---------------------------------|
 |--------------------------------------|---------------------------------|
 |--------------------------------------|---------------------------------|
 |--------20----20-18-------16----16-14-|-----11---11-9-------18----18-16-|
 |-----18----18----------14----14-------|---9----9---------16----16-------|
 |-/16----------------12----------------|-7-------------14----------------|
 |--------------------------------------|---------------------------------|
 |-------------------------------------|
 |-------------------------------------|
 |-------20----20-18-------16----16-14-|
 |----18----18----------14----14-------|
 |-16----------------12----------------|
 |-------------------------------------|

3/8 4/8
 
 |---------------|--------------------------|
 |---------------|--------------------------|
 |-----11---11-9-|-------18----------18-----|
 |---9----9------|----16----16----16----16--|
 |-7-------------|-14----------15-----------|
 |---------------|--------------------------|

6/8
 
 |-------------------------------------------|
 |-------------------------------------------|
 |-------20-------20-18-------16-------16-14-|
 |----18----18-18----------14----14-14-------|
 |-16-------------------12-------------------|
 |-------------------------------------------|
 |---------------------------------------|
 |---------------------------------------|
 |-----11-----11-9-------18-------18-16--|
 |---9----9-9---------16----16-16--------|
 |-7---------------14--------------------|
 |---------------------------------------|
 |-------------------------------------------|
 |-------------------------------------------|
 |-------20-------20-18-------16-------16-14-|
 |----18----18-18----------14----14-14-------|
 |-16-------------------12-------------------|
 |-------------------------------------------|

3/8 4/8
 
 |---------------|-------------------|
 |---------------|-------------------|
 |-----11---11-9-|-------18----------|
 |---9----9------|----16----16-------|
 |-7-------------|-14----------15\---|
 |---------------|-------------------|

6/8
 
 |--------------------------|-------------------------|
 |--------------------------|-------------------------|
 |-----8---8s9--------------|-----------------6---6-4-|
 |---6---6---------9---9s11-|-----4---4-6---4---4-----|
 |-4-------------7---7------|---2---2-----2-----------|
 |-------------5------------|-0-----------------------|

~ ~~
 
 |------------------------|------------------------------*|
 |------------------------|------------------------------*|
 |-----8---8--------------|-----11---11s13------13----13-*|
 |---6---6-------9---9s11-|---9----9---------11----11----*|
 |-4-----------7---7------|-7--------------9-------------*|
 |-----------5------------|------------------------------*|

Tablature Legend
 
 ----------------

h - hammer-on
p - pull-off
b - bend
pb - pre-bend
r - bend release (if no number after the r, then release immediately)
/\ - slide into or out of (from/to "nowhere")
s - legato slide
S - shift slide
- natural harmonic
[n] - artificial harmonic
n(n) - tapped harmonic
~ - vibrato
tr - trill
T - tap
TP - trem. picking
PM - palm muting
\n/ - tremolo bar dip; n = amount to dip
\n - tremolo bar down
n/ - tremolo bar up
/n\ - tremolo bar inverted dip
= - hold bend; also acts as connecting device for hammers/pulls
- volume swell (louder/softer)
x - on rhythm slash represents muted slash
o - on rhythm slash represents single note slash
Misc Legend
 
 -----------

| - bar
|| - double bar
||o - repeat start
o|| - repeat end
*| - double bar (ending)
: - bar (freetime)
$ - Segno
& - Coda
Tempo markers - = BPM(8/16=s8/s16),
where s8 = swing 8ths, s16 = swing 16ths

Important: The song above is NOT stored on the Chordie server. The original song is hosted at www.guitartabs.cc. Chordie works as a search engine and provides on-the-fly formatting. Chordie does not index songs against artists'/composers' will. To remove this song please click here.

Text color:
Chord color:
Chord grids: 
Font size:    
Page size: 

A A#5 Am7 Am9 B B11 C#m C#m9 E E/G# E5 E9 F#5 F#m F#m11 G G#5
Rate #1 of 3 versions

Jango Player

Login - add to songbook

SHARE PAGE  




You need to log in to post comments