Guitar Tabs, Chords and Lyrics
Server problems seems to be fixed. Chordie has been experiencing problems with songs disappearing. These issues now seems to be fixed, but still verifying the fix. If you find anything strange, please email admin@chordie.com.


Revolution Is My Name  Pantera

REVOLUTION IS MY NAME
As recorded by Pantera
(From the 2000 Album REINVENTING THE STEEL)
Music by Vincent Abbott, Darrell Abbott, Phillip Anselmo, Rex Brown
Gtr I (D G C F A D) - 'git 1'
Gtr II (D G C F A D) - 'git 2'
Intro
Tempo I (Half-Time Feel) Q=96
[E5]  
[4/4] Gtr I
[E] [E] [+E] [E] [+E] [E] [+E] [E]  
 
 ||------------------------------------------|
 ||o-----------------------------------------|
 ||---------------8b9-(8)pb9------------9b10-|
 ||------------------------------------------|
 ||o---6b7-(6)pb7------------6b7-(6)pb7------|
 ||--0---------------------------------------|

|
| Gtr II
| TP TP TP TP TP TP TP
| E E +E E +E E +E E
 
 ||------------------------------------------|
 ||o-----------------------------------------|
 ||---------------8b9-(8)pb9------------9b10-|
 ||------------------------------------------|
 ||o---6b7-(6)pb7------------6b7-(6)pb7------|
 ||--0---------------------------------------|

+E E +E E +E E +E E 3x E E +E E +E E +E E
 
 |----------------------------------------------||----------------------------------------|
 |---------------------------------------------o||----------------------------------------|
 |-(9)b10---------------------------------------||--------------8b9-(8)pb9------------8b9-|
 |--------8b9-(8)pb9----------------------------||----------------------------------------|
 |-------------------9b10-(9)pb10--------------o||---6b7-(6)pb7------------6b7-(6)pb7-----|
 |--------------------------------5b6-(5)pb6-1--||-0--------------------------------------|

|
| TP TP TP TP TP TP TP TP TP TP TP TP TP TP
| +E E +E E +E E +E E 3x E E +E E +E E +E E
 
 |----------------------------------------------||----------------------------------------|
 |---------------------------------------------o||----------------------------------------|
 |-(9)b10---------------------------------------||--------------8b9-(8)pb9------------8b9-|
 |--------8b9-(8)pb9----------------------------||----------------------------------------|
 |-------------------9b10-(9)pb10--------------o||---6b7-(6)pb7------------6b7-(6)pb7-----|
 |--------------------------------5b6-(5)pb6-1--||-0--------------------------------------|

Gtr I
+H. Q E E +E E +E E +E E
 
 |--------------------||------------------------------------------|
 |--------------------||o-----------------------------------------|
 |-(8)b10-------------||---------------8b9-(8)pb9------------9b10-|
 |--------------------||------------------------------------------|
 |--------------------||o---6b7-(6)pb7------------6b7-(6)pb7------|
 |---------------12\--||--0---------------------------------------|

|
| +H. Q E E +E E +E E +E E
 
 |--------------------||------------------------------------------|
 |--------------------||o-----------------------------------------|
 |-(8)b10.5-----------||---------------8b9-(8)b9-------------9b10-|
 |--------------------||------------------------------------------|
 |--------------------||o---6b7-(6)b7-------------6b7-(6)b7-------|
 |---------------12\--||--0---------------------------------------|

+E E +E E +E E +E E 4x W
 
 |-----------------------------------------------||------|
 |----------------------------------------------o||------|
 |-(9)b10----------------------------------------||------|
 |---------8b9-(8)pb9----------------------------||------|
 |--------------------9b10-(9)pb10--------------o||------|
 |---------------------------------5b6-(5)pb6-1--||-0----|

|
| +E E +E E +E E +E E 4x W
 
 |-----------------------------------------------||------|
 |----------------------------------------------o||------|
 |-(9)pb10---------------------------------------||------|
 |---------8b9-(8)b9-----------------------------||------|
 |--------------------9b10-(9)b10---------------o||------|
 |---------------------------------5b6-(5)b6--1--||-0----|

Tempo II Q.=138
$
1[E5]2/8
Gtrs I, II
[E] [E] [E] [E] [E] [E] [E] [E] [E] [E] [E] [E] [E] [E] [E] [E] [E] [E] [E] [E] [E] [E] [E] [E]  
 
 |-------------------------|-----------------------------------------------------|
 |-------------------------|-----------------------------------------------------|
 |-------------------------|-----------------------------------------------------|
 |-------------------------|-----------------------------------------------------|
 |-------------------------|-7p5---7---5b5.5-------------------------------------|
 |-0-0-0-0-0-0-0-0-0-0-0-0-|-----7---x-------7b7.5-6b6.5-5b5.5-3b3.5-5b5.5-3b3.5-|

Q E +E Q Q E +E Q
 
 |---------------------------|
 |---------------------------|
 |---------------------------|
 |---------------------------|
 |---------------------------|
 |-0--0-(0)-0--0--0-(0)-0----|

[E] [E] [E] [E] [E] [E] [E] [E] [E] [E] [E] [E] [E] [E] [E] [E] [E] [E] [E] [E] [E] [E] [E] [E]  
 
 |-------------------------|-------------------------|
 |-------------------------|-------------------------|
 |-------------------------|-------------------------|
 |-------5-----------5-----|-------------------------|
 |-7p5-----7p5-7p5-----7p5-|-------------------------|
 |-----7-----------7-------|-0-0-0-0-0-0-0-0-0-0-0-0-|

[E] [E] [E] [E] [E] [E] [E] [E] [E] [E] [E] [E]  
 
 |------------------------------------------------------|
 |------------------------------------------------------|
 |------------------------------------------------------|
 |------------------------------------------------------|
 |-7p5---7---5b5.5--------------------------------------|
 |-----7---x-------7b7.5-6b6.5-5b5.5-3b3.5-5b5.5-3b3.5--|

Verse
[C5] [Eb5] [E5]  
 
 PM------------------|

Q E +E Q Q E +E Q H. Q. +Q +E E E E q E E E E q E
 
 |-------------------------|------------------------||------------------------|
 |-------------------------|------------------------||------------------------|
 |-------------------------|-5-------8----(8)--(8)\-||------------------------|
 |-------------------------|-5-------8----(8)--(8)\-||------------------------|
 |-------------------------|-3-------6----(6)--(6)\-||------------------------|
 |-0--0-(0)-0--0--0-(0)-0--|-3-------6----(6)--(6)\-||-0-6-0-3--5-0-6-0-3--5--|

[G5F#5] [F5] [E5]  
 
 PM-------| PM------------------|

E E E q E E E E E E E E E E q E E E E q E
 
 |------------------------|-----------------------|
 |------------------------|-----------------------|
 |------------------------|-----------------------|
 |------------------------|-----------------------|
 |---1------0-5s4-4-4s3-3-|---1------0---1------0-|
 |-0---0-3----3s2-2-2s1-1-|-0---0-3----0---0-3----|

[G5F#5] [F5] [E5]  
 
 PM-------| PM------------------|

E E E q E E E E E E E E E E q E E E E q E
 
 |------------------------|-----------------------|
 |------------------------|-----------------------|
 |------------------------|-----------------------|
 |------------------------|-----------------------|
 |----------0-5s4-4-4s3-3-|-----------------------|
 |-0-6-0-3----3s2-2-2s1-1-|-0-6-0-3--5-0-6-0-3--5-|

[G5F#5] [F5] [E5]  
 
 PM-------| PM------------------|

E E E q E E E E E E E E E E q E E E E q E
 
 |------------------------|-----------------------|
 |------------------------|-----------------------|
 |------------------------|-----------------------|
 |------------------------|-----------------------|
 |---1------0-5s4-4-4s3-3-|---1------0---1------0-|
 |-0---0-3----3s2-2-2s1-1-|-0---0-3----0---0-3----|

Pre-Chorus
[E5]  
 
 PM----------| PM--------------------|

E E E E E E E E E Q. E E E E E E E E E E E E
 
 |-------------------------||-------------------------|
 |-------------------------||-------------------------|
 |-------------------------||-------------------------|
 |-------------------------||-------------------------|
 |-------------------------||-------------------------|
 |-0-6-0-3-0-5-0-----12\---||-0-6-0-3-0-5-0-6-0-3-0-5-|

[G5F#5] [F5] [E5]  
 
 PM--------| PM------------------|

E E E E E E E E E E E E E E E q E E E E q E
 
 |-------------------------|-----------------------|
 |-------------------------|-----------------------|
 |-------------------------|-----------------------|
 |-------------------------|-----------------------|
 |-------------5s4-4-4s3-3-|-----------------------|
 |-0-6-0-3-0-5-3s2-2-2s1-1-|-0-6-0-3--5-0-6-0-3--5-|

[G5F#5] [F5] [E5]  
 
 PM-------| PM--------------------|

E E E q E E E E E E E E E E E E E E E E E E E
 
 |------------------------|-------------------------|
 |------------------------|-------------------------|
 |------------------------|-------------------------|
 |------------------------|-------------------------|
 |------------5s4-4-4s3-3-|-------------------------|
 |-0-6-0-3--5-3s2-2-2s1-1-|-0-6-0-3-0-5-0-6-0-3-0-5-|

[G5F#5] [F5] [E5]  
 
 PM--------| PM------------------|

E E E E E E E E E E E E E E E q E E E E q E
 
 |-------------------------|-----------------------|
 |-------------------------|-----------------------|
 |-------------------------|-----------------------|
 |-------------------------|-----------------------|
 |-------------5s4-4-4s3-3-|-----------------------|
 |-0-6-0-3-0-5-3s2-2-2s1-1-|-0-6-0-3--5-0-6-0-3--5-|

Chorus
[C5] [Eb5] [E5] ~~~~~~~~
H. Q E +E Q Q. Q E Q E +Q E
 
 |---------------------||-------------------------|
 |---------------------||-------------------------|
 |-5-------8--8-(8)-8--||-------------------------|
 |-5-------8--8-(8)-8--||-------------------------|
 |-3-------6--6-(6)-6--||------5--7-8--7b8r(7)----|
 |-3-------6--6-(6)-6--||-0---------------------0-|

~~~~~~~~ [F5] [E5] ~~~~~~~~
Q E Q E +Q E Q E +Q. Q E Q E +Q E
 
 |-------------------------|--------------------------|
 |-------------------------|--------------------------|
 |-------------------------|--------------------------|
 |-------------------------|--------------------------|
 |-5--7-8--7b8r(7)--3-3----|-------5--7-8--7b8r(7)----|
 |------------------1-1--0-|-(0)--------------------0-|

~~~~~~~~[F5] [E5]
Q E Q E +Q E Q E
 
 |-------------------------|
 |-------------------------|
 |-------------------------|
 |-------------------------|
 |-5--7-8--7b8r(7)--3-3----|
 |------------------1-1--0-|

~~~~~~~~ ~~~~~~~~[F5] [E5]
+Q. Q E Q E +Q E Q E Q E +Q E Q E
 
 |--------------------------|--------------------------|
 |--------------------------|--------------------------|
 |--------------------------|--------------------------|
 |------------8-------------|------8-------------------|
 |-------5--7---------------|-5--7-------------3-3-----|
 |-(0)-----------6b7r(6)--0-|---------6b7r(6)--1-1--0--|

[Bb5] [A5] [G#5] [G5]  
 
 ---------------------------------PM----PM----PM----PM

+Q. Q E Q E +Q E Q E Q E Q E Q E
 
 |--------------------------|-------------------------||
 |--------------------------|-------------------------||
 |--------------------------|-------------------------||
 |------------8-------------|-----8-----7-----6-----5-||
 |-------5--7---------------|-8-----7-----6-----5-----||
 |-(0)-----------6b7r(6)--0-|-6---6-5---5-4---4-3---3-||

| Q E Q E Q E Q E
|
| Gtr II
| W E E E E E E E E E E E E
 
 |--------------------------|-------------------------||
 |--------------------------|-------------------------||
 |--------------------------|-------------------------||
 |--------------------------|-----8-----7-----6-----5-||
 |--------------------------|---8-----7-----6-----5---||
 |--------------------------|-6-----5-----4-----3-----||

Interlude I
Tempo I Q=96
[F#5]  
[4/4] Gtr I
~ ~ ~ ~
E E S S E S S E S S E E E S S S S S S S S Q
 
 |-----------------------|------------------------|
 |-----------------------|------------------------|
 |-----------------------|-----------1-2p1-2-4s6--|
 |-----4p2-4-------------|-----4p2-4--------------|
 |-----------4p3-4-1p0-1-|------------------------|
 |-2-2-------------------|-2-2--------------------|

|
| Gtr II
| ~ ~ ~ ~
| E E S S E S S E S S E E E S S S S S S S S Q
 
 |-----------------------|------------------------|
 |-----------------------|------------------------|
 |-----------------------|-----------1-2p1-2-4s6--|
 |-----4p2-4-------------|-----4p2-4--------------|
 |-----------4p3-4-1p0-1-|------------------------|
 |-2-2-------------------|-2-2--------------------|

[ Tab from: bttp://www.guitartabs.cc/tabs/p/pantera/revolution_is_my_name_tab_ver_5.btml ] 
To Coda
~ ~ ~ ~
E E S S E S S E S S E E E S S S S S S S S Q
 
 |-----------------------|------------------------||
 |-----------------------|------------------------||
 |-----3p2-3-------------|-----3p2-3-4-6p4-6-8-9--||
 |-----------4p3-4-------|------------------------||
 |-----------------4p3-4-|------------------------||
 |-2-2-------------------|-2-2--------------------||

|
| ~ ~ ~ ~
| E E S S E S S E S S E E E S S S S S S S S Q
 
 |-----------------------|------------------------||
 |-----------------------|------------------------||
 |-----------------------|-----------1-2p1-2-4s6--||
 |-----4p2-4-------------|-----4p2-4--------------||
 |-----------4p3-4-1p0-1-|------------------------||
 |-2-2-------------------|-2-2--------------------||

Guitar Solo I
[A5]Gtrs I, II
~~~~~ ~~~~~
E E S S S S S S S S S S S S Q S S E Q. S S
 
 |-----------------------------|--------------------------------|
 |-----------------------------|--------------------------------|
 |-----------------------------|------------------------------5-|
 |-----7p5---7---5-------------|--------------------------------|
 |---------7-------7-6-5-3-5p3-|-[5]b7--[3]-[5]-[3]-------------|
 |-5-5-------------------------|--------------------[3]b5-------|

Gtr I
S S S S S S S S T T T T T T T T T T T T T T T T
 
 |-------5-------5-----5-8p7p5---7p5-----5---------------|
 |-----5-------5---------------8-----8p7---8p7p5-8p7p5---|
 |-7b9-----7b9-----7b9---------------------------------8-|
 |-------------------------------------------------------|
 |-------------------------------------------------------|
 |-------------------------------------------------------|

D.S. al Coda
Gtrs I, II
T T T T T T T T T T T T T T S Q Q
 
 |-------------------------------5-----6-----||
 |-7p5-----5---------------------8b10--9b11--||
 |-----8p7---8p7p5-8p7p5---5h7-5-------------||
 |-----------------------7-------------------||
 |-------------------------------------------||
 |-------------------------------------------||

Guitar Solo II
&
[A5]Gtrs [C5]I, [B5]II[G5] [F5] [E5F5C5]
Q S S S S S S S S Q E S S +S S S S S E. +S +E S
 
 |---------------------------|------------------5-------------------------------|
 |---------------------------|----------------5---5-8b10-8b10-(8)pb10-(8)pb10---|
 |-------9-7-----------------|----5-7b9-(7)b9-----------------------------------|
 |-/10--10-9----9-7---5-7----|-/7-----------------------------------------------|
 |-/12---------10-8---7-8-7--|--------------------------------------------------|
 |------------------------8--|--------------------------------------------------|

Q S S S S S S S S Q
W
 
 |-8p7p5---5--------5-8p7p5---5--------5-8p7p5---5------|
 |-------8---8b10-----------8---8b10-----------8---8b10-|
 |------------------------------------------------------|
 |------------------------------------------------------|
 |------------------------------------------------------|
 |------------------------------------------------------|

T T T T E S E S T T T T E S E S T T T T E S
|3| |3| |3| |3| |3|
~
W
 
 |---5------5------5------5------5------5---------------------------||
 |-----8b10---8b10---8b10---8b10---8b10---8p5-8p5---5---------------||
 |------------------------------------------------8---8-7p5---5h7-5-||
 |----------------------------------------------------------7-------||
 |------------------------------------------------------------------||
 |------------------------------------------------------------------||

S S S S S S S S S S S S T T T T T T T T T T T T E
 
 |-3-| |--3---| |--3---| |--3---|

[B5] ~~~
W
 
 |-----------------------------------|
 |----------------6-7-6-7h8-7-(7)----|
 |--------6-7-6-7--------------------|
 |-/9-8-9----------------------------|
 |-----------------------------------|
 |-----------------------------------|

S S S S S S S S S S a S S +Q
W
 
 |------------------------------------------------------------------||
 |-7h8p7p6-7p6---6-7p6---6------------------------------------------||
 |-------------9-------9---9-7p6---7p6-----6------------------------||
 |-------------------------------9-----9p7---9p7p6-9p7p6---7p6------||
 |-------------------------------------------------------9-----9p7--||
 |------------------------------------------------------------------||

T T T T T T T T T T T T T T T T T T T T T T T T T T T T T T T T
[C#5]  
~~ ~[2/4]
|-3--|
Q S S S S S S S S S S E S +E. E E E
 
 |--------------------------------|---------------------||
 |--------------------------------|-11b11.5r(11)--------||
 |------------------------------9-|-11b11.5r(11)-9-11-9-||
 |----------------------9-10-11---|---------------------||
 |--------9---10---11-------------|---------------------||
 |-/9--12-------------------------|---------------------||

[E7]  
[4/4] Gtr I
 
 |--3--| |---3----| |--3--| |---3----|

[E] [E] [E] [E] [E] [E] [E] [E] [E] [E] [E] [E]  
 
 |-12----------------------15----------------------|
 |----14-11-------11----------17-14-------14-------|
 |----------13b15----13b15----------16b18----16b18-|
 |-------------------------------------------------|
 |-------------------------------------------------|
 |-------------------------------------------------|

|
| Gtr II
 
 | |--3--| |---3----| |--3--| |---3----|

| E E E E E E E E E E E E
 
 |--9----------------------12----------------------|
 |----11--8--------8----------14-11-------11-------|
 |----------10b12----10b12----------13b15----13b15-|
 |-------------------------------------------------|
 |-------------------------------------------------|
 |-------------------------------------------------|

~~~~~~~~~~~~~~~
 
 |--3--| |---3----|

E E E E E E E +Q.
 
 |-18----------------------20b20.5-(20)b21---||
 |----20-17-------17-------------------------||
 |----------19b21----19b21-------------------||
 |-------------------------------------------||
 |-------------------------------------------||
 |-------------------------------------------||

|
| ~~~~~~~~~~~~~~~
 
 | |--3--| |---3----|

| E E E E E E E +Q.
 
 |-15----------------------17b17.5-(17)b18---||
 |----17-14-------14-------------------------||
 |----------16b18----16b18-------------------||
 |-------------------------------------------||
 |-------------------------------------------||
 |-------------------------------------------||

Bridge
[E5]  
[4/4] Gtrs I, II
PM--| PM| PM
S S S S +S E S S E S E E
 
 ||-----------------------------------------------------|
 ||o-------9b9.5-(9)b9.5-10b10.5-----9b9.5---10b10.5-10-|
 ||--------9b9.5-(9)b9.5-10b10.5-----9b9.5---10b10.5-10-|
 ||-----------------------------------------------------|
 ||o----------------------------------------------------|
 ||--0-0-0-----------------------0-0-------0------------|

PM--| PM| PM
S S S S +S E S S E S E E
 
 |-----------------------------------------------------|
 |-------9b9.5-(9)b9.5-10b10.5-----9b9.5---10b10.5-10--|
 |-------9b9.5-(9)b9.5-10b10.5-----9b9.5---10b10.5-10--|
 |-----------------------------------------------------|
 |-----------------------------------------------------|
 |-0-0-0-----------------------0-0-------0-------------|

PM--| PM| PM
S S S S +S E S S E S E E
 
 |----------------------------------------------------|
 |-------9b9.5-(9)b9.5-10b10.5-----9b9.5---10b10.5-10-|
 |-------9b9.5-(9)b9.5-10b10.5-----9b9.5---10b10.5-10-|
 |----------------------------------------------------|
 |----------------------------------------------------|
 |-0-0-0-----------------------0-0-------0------------|

PM--| PM| PM
S S S S +S E S S E S E E
 
 |----------------------------------------------------|
 |-------9b9.5-(9)b9.5-10b10.5-----9b9.5---10b10.5-10-|
 |-------9b9.5-(9)b9.5-10b10.5-----9b9.5---10b10.5-10-|
 |----------------------------------------------------|
 |----------------------------------------------------|
 |-0-0-0-----------------------0-0-------0------------|

[E5]S S S [G5]S +S [A5E5]E S +S [G5E5B5Bb5]E S E E [E5]S S S [G5]S +S [A5E5]E S +S [G5E5G5B5Bb5]S S S E E
 
 |-----------------------------|-------------------------------|
 |-----------------------------|-------------------------------|
 |-----------------------------|-------------------------------|
 |-----------------------------|-------------------------------|
 |-2-2-2-5-(5)-7-2-(2)-5-2S9-8-|-2-2-2-5-(5)-7-2-(2)-5---5S9-8-|
 |-0-0-0-3-(3)-5-0-(0)-3-0S7-6-|-0-0-0-3-(3)-5-0-(0)-3-0-3S7-6-|

[E5]S S S [G5]S +S [A5E5]E S +S [G5E5B5Bb5]E S E E [E5]S S S [G5]S +S [A5E5]E S +S [G5E5G5B5Bb5]S S S E E
 
 |-----------------------------|-------------------------------|
 |-----------------------------|-------------------------------|
 |-----------------------------|-------------------------------|
 |-----------------------------|-------------------------------|
 |-2-2-2-5-(5)-7-2-(2)-5-2S9-8-|-2-2-2-5-(5)-7-2-(2)-5---5S9-8-|
 |-0-0-0-3-(3)-5-0-(0)-3-0S7-6-|-0-0-0-3-(3)-5-0-(0)-3-0-3S7-6-|

1.
N.C.
T T T T S S S S S S T T T T S S S S S S [2/4] T T T T S S S S S S
 
 |------------------------------------------|-----------------------||
 |------------------------------------------|----------------------o||
 |-9h10p9p7-9-7-----------------------------|-----------------------||
 |--------------9-8-7-5-7h8p7p5-7-5---------|-----------------------||
 |----------------------------------7-6-5-3-|-5h6p5p3-5-3----------o||
 |------------------------------------------|-------------5-4-3-1---||

Midtro
2. Tempo II Q.=138
2/4 4[E5]/4 1[E5]2/8
Gtrs I, II
T T T T S S S S S S W E E E E E E E E E E E E
 
 |---------------------|----------||--------------------------|
 |---------------------|----------||--------------------------|
 |---------------------|----------||--------------------------|
 |---------------------|----------||--------------------------|
 |-5h6p5p3-5-3---------|----------||--------------------------|
 |-------------5-4-3-1-|-0--------||-0-0-0-0-0-0-0-0-0-0-0-0--|

[E] [E] [E] [E] [E] [E] [E] [E] [E] [E] [E] [E]  
 
 |-----------------------------------------------------|
 |-----------------------------------------------------|
 |-----------------------------------------------------|
 |-----------------------------------------------------|
 |-7p5---7---5b5.5-------------------------------------|
 |-----7---x-------7b7.5-6b6.5-5b5.5-3b3.5-5b5.5-3b3.5-|

Q E +E Q Q E +E Q [C5]H. [Eb5]Q E +E Q
 
 |-------------------------|----------------------||
 |-------------------------|----------------------||
 |-------------------------|-5-------8--8-(8)-8---||
 |-------------------------|-5-------8--8-(8)-8---||
 |-------------------------|-3-------6--6-(6)-6---||
 |-0--0-(0)-0--0--0-(0)-0--|-3-------6--6-(6)-6---||

Chorus
Tempo II Q.=130
1[E5]2/8
~~~~~~~~
Q. Q E Q E +Q E
 
 ||--------------------------|
 ||o-------------------------|
 ||--------------------------|
 ||--------------------------|
 ||o------5--7-8--7b8r(7)----|
 ||--0---------------------0-|

~~~~~~~~ [F5] [E5] ~~~~~~~~
Q E Q E +Q E Q E +Q. Q E Q E +Q E
 
 |-------------------------|---------------------------|
 |-------------------------|---------------------------|
 |-------------------------|---------------------------|
 |-------------------------|---------------------------|
 |-5--7-8--7b8r(7)--3-3----|-------5--7-8--7b8r(7)-----|
 |------------------1-1--0-|-(0)--------------------0--|

~~~~~~~~[F5] [E5]
Q E Q E +Q E Q E
 
 |-------------------------|
 |-------------------------|
 |-------------------------|
 |-------------------------|
 |-5--7-8--7b8r(7)--3-3----|
 |------------------1-1--0-|

~~~~~~~~ ~~~~~~~~[F5] [E5]
+Q. Q E Q E +Q E Q E Q E +Q E Q E
 
 |--------------------------|--------------------------|
 |--------------------------|--------------------------|
 |--------------------------|--------------------------|
 |------------8-------------|------8-------------------|
 |-------5--7---------------|-5--7-------------3-3-----|
 |-(0)-----------6b7r(6)--0-|---------6b7r(6)--1-1--0--|

1.
[Bb5]Gtr I[A5] [G#5] [G5]
~~~~~~~~ PM PM PM PM
+Q. Q E Q E +Q E Q E Q E Q E Q E
 
 |--------------------------|--------------------------||
 |--------------------------|-------------------------o||
 |--------------------------|--------------------------||
 |------------8-------------|-----8-----7-----6-----5--||
 |-------5--7---------------|-8-----7-----6-----5-----o||
 |-(0)-----------6b7r(6)--0-|-6---6-5---5-4---4-3---3--||

|
| Gtr II
| W E E E E E E E E E E E E
 
 |--------------------------|--------------------------||
 |--------------------------|-------------------------o||
 |--------------------------|--------------------------||
 |--------------------------|-----8-----7-----6-----5--||
 |--------------------------|---8-----7-----6-----5---o||
 |--------------------------|-6-----5-----4-----3------||

2.
[Bb5]Gtrs [A5]I, II[G5] [F5] [E5]
Q. Q. Q. Q E +E H H Q E
 
 |---------------------|--------------------*|
 |---------------------|--------------------*|
 |---------------------|--------------------*|
 |---------------------|--------------------*|
 |-8----7----5----3--2-|-(2)----------------*|
 |-6----5----3----1--0-|-(0)----------------*|

Duration Legend
 
 ---------------
 W - whole; H - half; Q - quarter; E - 8th; S - 16th; T - 32nd; X - 64th; a - acciaccatura

+ - note tied to previous; . - note dotted; .. - note double dotted
Uncapitalized letters represent notes that are staccato (1/2 duration)
Irregular groupings are notated above the duration line
Duration letters will always appear directly above the note/fret number it represents the
duration for. Duration letters with no fret number below them represent rests. Multi-
bar rests are notated in the form Wxn, where n is the number of bars to rest for. Low
melody durations appear below the staff
Tablature Legend
 
 ----------------

h - hammer-on
p - pull-off
b - bend
pb - pre-bend
r - bend release (if no number after the r, then release immediately)
/\ - slide into or out of (from/to "nowhere")
s - legato slide
S - shift slide
- natural harmonic
[n] - artificial harmonic
n(n) - tapped harmonic
~ - vibrato
tr - trill
T - tap
TP - trem. picking
PM - palm muting
\n/ - tremolo bar dip; n = amount to dip
\n - tremolo bar down
n/ - tremolo bar up
/n\ - tremolo bar inverted dip
= - hold bend; also acts as connecting device for hammers/pulls
- volume swell (louder/softer)
x - on rhythm slash represents muted slash
o - on rhythm slash represents single note slash
Misc Legend
 
 -----------

| - bar
|| - double bar
||o - repeat start
o|| - repeat end
*| - double bar (ending)
: - bar (freetime)
$ - Segno
& - Coda
Tempo markers - = BPM(8/16=s8/s16), where s8 = swing 8ths, s16 = swing 16ths

Important: The song above is NOT stored on the Chordie server. The original song is hosted at www.guitartabs.cc. Chordie works as a search engine and provides on-the-fly formatting. Chordie does not index songs against artists'/composers' will. To remove this song please click here.

Text color:
Chord color:
Chord grids: 
Font size:    
Page size: 

A5 B5 Bb5 C#5 C5 E E5 E7 Eb5 F#5 F5 G#5 G5
Rate #1 of 2 versions

Login - add to songbook

SHARE PAGE  



You need to log in to post comments