Guitar Tabs, Chords and Lyrics
Major upgrade!! After one year development the new version of Chordie is now online! Please give feedback.


Broken Home   Papa Roach

 
 G------------------------------------------------------
 D----4---------4---------4---------4---------4---------
 A------4---------4---------4---------4---------4-------
 E-2------2--2------2--2------2--2------2--2------2-----
 B------------------------------------------------------
 G------------------------------------------------------
 D-----------------------------4------------------------
 A-------------------------------4----------------------
 E-0-2-2----0-2-2----0-2-2--2------2--0-2-2---0-2-------
 B------------------------------------------------------

 


 


 1 VERSE (PLAY 12X) (TIME 0:30)


 

 
 G---------------------------
 D---------------------------
 A---------------------------
 E--2-2----------------0-0-0-
 B-------0-2-2--2-3-3-------- 

 


 


 (PLAY 2X) (TIME 1:01)


 

 
 G------------------------------------------------------
 D------------------------------------------------------
 A------------------------------5-5-5-5-4-4-4-4-2-2-2-2-
 E-2-2-0--2-2-0--2-2-0--2-2-2-2-------------------------
 B------------------------------------------------------
 G---------
 D---------
 A--------- 

 


 [E-5-5-5-5-]  


 

 
 B--------- 

 


 


 BRIDGE (PLAY 1X) (TIME 1:11)


 

 
 G--------------------------------------
 D--------------------------------4-----
 A----------------------------------4---
 E-0-2-2--0-2-2--0-2-2--0-2-2--2------2-
 B--------------------------------------
 G---------------------
 D---------------------
 A---------------------
 E-0-2-2--0-2-2--0-2-2-
 B--------------------- 

 


 


 2 VERSE (PLAY 8X) (TIME 1:21)


 

 
 G---------------------------
 D---------------------------
 A---------------------------
 E--2-2----------------0-0-0-
 B-------0-2-2--2-3-3-------- 

 


 


 (PLAY 2X) (TIME 1:41)


 

 
 G------------------------------------------------------
 D------------------------------------------------------
 A------------------------------5-5-5-5-4-4-4-4-2-2-2-2-
 E-2-2-0--2-2-0--2-2-0--2-2-2-2-------------------------
 B------------------------------------------------------
 G---------
 D---------
 A--------- 

 


 [E-5-5-5-5-]  


 

 
 B--------- 

 


 


 (PLAY 4X) (TIME 1:51)


 

 
 G------------------------------------------------------
 D------------------------------------------------------
 A-----------------5-5-5-5-4-4-4-4-2-2-2-2--------------
 E-2-2-2-2-2-2-2-2-------------------------5-5-5-5------
 B------------------------------------------------------

 


 


 INTERLUDE (PLAY 1X)(TIME 2:12)


 

 
 G--------------------------------------------
 D--------------------------------------------
 A--------------------------------------------
 E-2-2--2-2-0-0-2-2--2-2-0-0-2-2--2-2-0-0-2-2-
 B--------------------------------------------
 G-------------
 D-------------
 A-------------
 E-2-2-0-0-2-2-
 B------------- 

 


 


 CHORUS (PLAY 1X)(TIME 2:24)


 

 
 G------------------------------------------------------
 D----4---------4---------4---------4---------4--2------
 A------4---------4---------4---------4-----------------
 E-2------2--2------2--2------2--2------2--2------------
 B------------------------------------------------------
 G----------------------------------------
 D----4---------4---------4---------4-----
 A------4---------4---------4---------4---
 E-2------2--2------2--2------2--2------2-
 B---------------------------------------- 

 


 


 2 BRIDGE (PLAY 1X) (TIME 2:44)


 

 
 G------------------------------------------------
 D------------------------------------------------
 A------------------------------------------------
 E-2-2--2--2-2--2--2-2--2--2-2--2--2-2--2--2-2--2-
 B------------------------------------------------
 G------------------------------------------------------
 D------------------------------------------------------
 A------------------------------------------------------
 E-2-2--2--2-2--2---2-----------------------------------
 B------------------------------------------------------

 


 


 1 OUTRO (PLAY 12X) (TIME 2:57)


 

 
 G---------------------------
 D---------------------------
 A---------------------------
 E--2-2----------------0-0-0-
 B-------0-2-2--2-3-3-------- 

 


 


 2 OUTRO (PLAY 1X) (TIME 3:28)


 

 
 G------------------------------------------------------
 D------------------------------------------------------
 A------------------------------------------------------
 E-2-2-2-2---2-2-2-2---2-2-2-2---2-2-2-2---------2------
 B------------------------------------------------------


Important: The song above is NOT stored on the Chordie server. The original song is hosted at www.guitartabs.cc. Chordie works as a search engine and provides on-the-fly formatting. Chordie does not index songs against artists'/composers' will. To remove this song please click here.

This song is displayed as text-only. Transposing and tuning is only available for chordpro-songs.
Rate #1 of 6 versions

Jango Player

Login - add to songbook

SHARE PAGE  




You need to log in to post comments