Guitar Tabs, Chords and Lyrics
Major upgrade!! After one year development the new version of Chordie is now online! Please give feedback.


Time and Time Again  Papa Roach

Gtr I (C G C F A D) - 'Untitled'
Intro
Fast Rock Q=115
N.C.
[4/4] Gtr I
S S S S S S S S S S S S S S S S
 
 |---------------------------------------|
 |---------------------------------------|
 |---------------------------------------|
 |-5-5-5-7-7-7-8-8-8-10-10-10-12-12-15---|
 |-x-x-x-x-x-x-x-x-x--x--x--x--x--x--x---|
 |-5-5-5-7-7-7-8-8-8-10-10-10-12-12-15p0-|

S S S S S S S S S S S S S S S S
 
 |---------------------------------------|
 |---------------------------------------|
 |---------------------------------------|
 |-5-5-5-7-7-7-8-8-8-10-10-10-12-12-15---|
 |-x-x-x-x-x-x-x-x-x--x--x--x--x--x--x---|
 |-5-5-5-7-7-7-8-8-8-10-10-10-12-12-15p0-|

N.C.
S S S S S S S S S S S S S S S S
 
 |---------------------------------------|
 |---------------------------------------|
 |---------------------------------------|
 |-5-5-5-7-7-7-8-8-8-10-10-10-12-12-15---|
 |-x-x-x-x-x-x-x-x-x--x--x--x--x--x--x---|
 |-5-5-5-7-7-7-8-8-8-10-10-10-12-12-15p0-|

S S S S S S S S S S S S S S S S
 
 |-------------------------------------------------||
 |-------------------------------------------------||
 |-------------------------------------------------||
 |-------------------------------------------------||
 |-------------------------------------------------||
 |-15-12-12-15-12-12-15-12-12-15-12-12-15-15-15-15-||

Verse
Slower Q=113
N.C.
S S S S S S S S S S S S S S S S S S S S S S S S S S S S S S S S
 
 |---------------------------------|---------------------------------|
 |---------------------------------|---------------------------------|
 |---------------------------------|---------------------------------|
 |---------------------------------|---------------------------------|
 |---------------------------------|---------------------------------|
 |-5-5-8-8-5-5-0-8-8-5-5-0-8-8-5-5-|-0-0-8-8-5-5-0-8-8-5-5-0-8-8-5-5-|

N.C.
S S S S S S S S S S S S S S S S S S S S S S S S S S S S S S S S
 
 |---------------------------------|---------------------------------|
 |---------------------------------|---------------------------------|
 |---------------------------------|---------------------------------|
 |---------------------------------|---------------------------------|
 |-----5-5-------5-5-------5-5-----|-----5-5-------5-5---------------|
 |-0-0-----3-3-0-----3-3-0-----3-3-|-0-0-----3-3-0-----3-3-0-7-7-8-8-|

N.C.
S S S S S S S S S S S S S S S S S S S S S S S S S S S S S S S S
 
 |---------------------------------|---------------------------------|
 |---------------------------------|---------------------------------|
 |---------------------------------|---------------------------------|
 |---------------------------------|---------------------------------|
 |---------------------------------|---------------------------------|
 |-5-5-8-8-5-5-0-8-8-5-5-0-8-8-5-5-|-0-0-8-8-5-5-0-8-8-5-5-0-8-8-5-5-|

N.C. F5 D5F5 D5F#5
S S S S S S S S S S S S S S S S S S S S S S S S +S S S S +S S S S
 
 |---------------------------------|-------------------------------------|
 |---------------------------------|-------------------------------------|
 |---------------------------------|-------------------------------------|
 |---------------------------------|---------3-3-0-3-(3)-3-0-4-(4)-4-4-4-|
 |-----5-5-------5-5-------5-5-----|-----5-5-3-3-0-3-(3)-3-0-4-(4)-4-4-4-|
 |-0-0-----3-3-0-----3-3-0-----3-3-|-0-0-----3-3-0-3-(3)-3-0-4-(4)-4-4-4-|

N.C.
S S S S S S S S S S S S S S S S S S S S S S S S S S S S S S S S
 
 ||----------------------------------|---------------------------------|
 ||o---------------------------------|---------------------------------|
 ||----------------------------------|---------------------------------|
 ||----------------------------------|---------------------------------|
 ||o---------------------------------|---------------------------------|
 ||--5-5-8-8-5-5-0-8-8-5-5-0-8-8-5-5-|-0-0-8-8-5-5-0-8-8-5-5-0-8-8-5-5-|

N.C.
S S S S S S S S S S S S S S S S S S S S S S S S S S S S S S S S
 
 |---------------------------------|---------------------------------|
 |---------------------------------|---------------------------------|
 |---------------------------------|---------------------------------|
 |---------------------------------|---------------------------------|
 |-----5-5-------5-5-------5-5-----|-----5-5-------5-5---------------|
 |-0-0-----3-3-0-----3-3-0-----3-3-|-0-0-----3-3-0-----3-3-0-7-7-8-8-|

N.C.
S S S S S S S S S S S S S S S S S S S S S S S S S S S S S S S S
 
 |---------------------------------|---------------------------------|
 |---------------------------------|---------------------------------|
 |---------------------------------|---------------------------------|
 |---------------------------------|---------------------------------|
 |---------------------------------|---------------------------------|
 |-5-5-8-8-5-5-0-8-8-5-5-0-8-8-5-5-|-0-0-8-8-5-5-0-8-8-5-5-0-8-8-5-5-|

N.C. F5 D5F5 A5 Bb5
S S S S S S S S S S S S S S S S S S S S S S S S S E. S E.
 
 |---------------------------------|----------------------------||
 |---------------------------------|----------------------------||
 |---------------------------------|----------------------------||
 |---------------------------------|---------3-3-0-3-x-7--x-8---||
 |-----5-5-------5-5-------5-5-----|-----5-5-3-3-0-3-x-7--x-8---||
 |-0-0-----3-3-0-----3-3-0-----3-3-|-0-0-----3-3-0-3-x-7--x-8---||

Chorus
$
[B5]W [Dsus2] H +E S S [F#5] Q [G5]W [A5]H. E [Bb5]E
 
 |----------|---------------------|----------|-------------|
 |----------|---------------------|----------|-------------|
 |----------|---------------------|----------|-------------|
 |-9--------|-14----(14)-x-x-16\--|-5--------|-7-------7-8-|
 |-9--------|-12----(12)-x-x-16\--|-5--------|-7-------7-8-|
 |-9--------|-12----(12)-x-x-16\--|-5--------|-7-------7-8-|

1.
[B5]W [Dsus2] H +E S S [F#5] Q [G5]H. Q [F5]W
 
 |----------|---------------------|------------|-------||
 |----------|---------------------|------------|------o||
 |----------|---------------------|------------|-------||
 |-9--------|-14----(14)-x-x-16\--|-5-------5S=|=3-----||
 |-9--------|-12----(12)-x-x-16\--|-5-------5S=|=3----o||
 |-9--------|-12----(12)-x-x-16\--|-5-------5S=|=3-----||

2.,D.S.
[B5]W [Dsus2] H +E S S [F#5] Q [G5]W [A5]W
 
 |----------|---------------------|----------|------||
 |----------|---------------------|----------|------||
 |----------|---------------------|----------|------||
 |-9--------|-14----(14)-x-x-16\--|-5--------|-7----||
 |-9--------|-12----(12)-x-x-16\--|-5--------|-7----||
 |-9--------|-12----(12)-x-x-16\--|-5--------|-7----||

Bridge
Slow Rock Q=111
[Gm]S S S S E S S S S E S S S S [Bbsus2] S S S S E S S S S E [D5] Q
 
 |-----------------------------|----------------------------------|
 |-----------------------------|----------------------------------|
 |-----------------------------|----------------------------------|
 |-8-8-8-8---8-8-8-8---8-8-x-x-|-10-10-10-10---10-10-10-10---12\--|
 |-5-5-5-5---5-5-5-5---5-5-x-x-|--8--8--8--8----8--8--8--8---12\--|
 |-5-5-5-5---5-5-5-5---5-5-x-x-|--8--8--8--8----8--8--8--8---12\--|

[Eb5]S S S S E S S S S E S S S S [F5]S S S S E S S S S E S S S S
 
 |-----------------------------|------------------------------|
 |-----------------------------|------------------------------|
 |-----------------------------|------------------------------|
 |-1-1-1-1---1-1-1-1---1-1-x-x-|-3-3-3-3---3-3-3-3---3-3-x-x--|
 |-1-1-1-1---1-1-1-1---1-1-x-x-|-3-3-3-3---3-3-3-3---3-3-x-x--|
 |-1-1-1-1---1-1-1-1---1-1-x-x-|-3-3-3-3---3-3-3-3---3-3-x-x--|

[Gm]S S S S E S S S S E S S S S [Bbsus2] S S S S E S S S S S S Q[D5]
 
 |-----------------------------|------------------------------------|
 |-----------------------------|------------------------------------|
 |-----------------------------|------------------------------------|
 |-8-8-8-8---8-8-8-8---8-8-x-x-|-10-10-10-10---10-10-10-10-x-x-12\--|
 |-5-5-5-5---5-5-5-5---5-5-x-x-|--8--8--8--8----8--8--8--8-x-x-12\--|
 |-5-5-5-5---5-5-5-5---5-5-x-x-|--8--8--8--8----8--8--8--8-x-x-12\--|

To Coda
[Eb5] [F5]  
 
 PM----------|

S S S S E S S S S E S S S S E E E E E E E E
 
 |-----------------------------|-----------------||
 |-----------------------------|-----------------||
 |-----------------------------|-----------------||
 |-1-1-1-1---1-1-1-1---1-1-x-x-|-3---------------||
 |-1-1-1-1---1-1-1-1---1-1-x-x-|-3-3-3-3-3-3-3-3-||
 |-1-1-1-1---1-1-1-1---1-1-x-x-|-3-3-3-3-3-3-3-3-||

Re-Intro
a Tempo Q=115
N.C.
S S S S S S S S S S S S S S S S
 
 |---------------------------------------|
 |---------------------------------------|
 |---------------------------------------|
 |-5-5-5-7-7-7-8-8-8-10-10-10-12-12-15---|
 |-x-x-x-x-x-x-x-x-x--x--x--x--x--x--x---|
 |-5-5-5-7-7-7-8-8-8-10-10-10-12-12-15p0-|

S S S S S S S S S S S S S S S S
 
 |---------------------------------------|
 |---------------------------------------|
 |---------------------------------------|
 |-5-5-5-7-7-7-8-8-8-10-10-10-12-12-15---|
 |-x-x-x-x-x-x-x-x-x--x--x--x--x--x--x---|
 |-5-5-5-7-7-7-8-8-8-10-10-10-12-12-15p0-|

N.C.
S S S S S S S S S S S S S S S S
 
 |---------------------------------------|
 |---------------------------------------|
 |---------------------------------------|
 |-5-5-5-7-7-7-8-8-8-10-10-10-12-12-15---|
 |-x-x-x-x-x-x-x-x-x--x--x--x--x--x--x---|
 |-5-5-5-7-7-7-8-8-8-10-10-10-12-12-15p0-|

D.S. al Coda
S S S S S S S S S S S S S S S S
 
 |-------------------------------------------------||
 |-------------------------------------------------||
 |-------------------------------------------------||
 |-------------------------------------------------||
 |-------------------------------------------------||
 |-15-12-12-15-12-12-15-12-12-15-12-12-15-15-15-15-||

Outro
&
N.C.
S S S S S S S S S S S S S S S S
 
 |---------------------------------------|
 |---------------------------------------|
 |---------------------------------------|
 |-5-5-5-7-7-7-8-8-8-10-10-10-12-12-15---|
 |-x-x-x-x-x-x-x-x-x--x--x--x--x--x--x---|
 |-5-5-5-7-7-7-8-8-8-10-10-10-12-12-15p0-|

S S S S S S S S S S S S S S S S
 
 |---------------------------------------|
 |---------------------------------------|
 |---------------------------------------|
 |-5-5-5-7-7-7-8-8-8-10-10-10-12-12-15---|
 |-x-x-x-x-x-x-x-x-x--x--x--x--x--x--x---|
 |-5-5-5-7-7-7-8-8-8-10-10-10-12-12-15p0-|

N.C.
S S S S S S S S S S S S S S S S
 
 |---------------------------------------|
 |---------------------------------------|
 |---------------------------------------|
 |-5-5-5-7-7-7-8-8-8-10-10-10-12-12-15---|
 |-x-x-x-x-x-x-x-x-x--x--x--x--x--x--x---|
 |-5-5-5-7-7-7-8-8-8-10-10-10-12-12-15p0-|

S S S S S S S S S S S S S S S S
 
 |-------------------------------------------------*|
 |-------------------------------------------------*|
 |-------------------------------------------------*|
 |-------------------------------------------------*|
 |-------------------------------------------------*|
 |-15-12-12-15-12-12-15-12-12-15-12-12-15-15-15-15-*|
 --------------------------------------------------------------------------------

Duration Legend
 
 ---------------
 W - whole; H - half; Q - quarter; E - 8th; S - 16th; T - 32nd; X - 64th; a - acciaccatura

+ - note tied to previous; . - note dotted; .. - note double dotted
Uncapitalized letters represent notes that are staccato (1/2 duration)
Irregular groupings are notated above the duration line
Duration letters will always appear directly above the note/fret number it represents the
duration for. Duration letters with no fret number below them represent rests. Multi-
bar rests are notated in the form Wxn, where n is the number of bars to rest for. Low
melody durations appear below the staff
Tablature Legend
 
 ----------------

h - hammer-on
p - pull-off
b - bend
pb - pre-bend
r - bend release (if no number after the r, then release immediately)
/\ - slide into or out of (from/to "nowhere")
s - legato slide
S - shift slide
- natural harmonic
(n) - artificial harmonic
n(n) - tapped harmonic
~ - vibrato
tr - trill
T - tap
TP - trem. picking
PM - palm muting
\n/ - tremolo bar dip; n = amount to dip
\n - tremolo bar down
n/ - tremolo bar up
/n\ - tremolo bar inverted dip
= - hold bend; also acts as connecting device for hammers/pulls
- volume swell (louder/softer)
x - on rhythm slash represents muted slash
o - on rhythm slash represents single note slash
Misc Legend
 
 -----------

| - bar
|| - double bar
||o - repeat start
o|| - repeat end
*| - double bar (ending)
: - bar (freetime)
$ - Segno
& - Coda
Tempo markers - = BPM(8/16=s8/s16), where s8 = swing 8ths, s16 = swing 16ths

Important: The song above is NOT stored on the Chordie server. The original song is hosted at www.guitartabs.cc. Chordie works as a search engine and provides on-the-fly formatting. Chordie does not index songs against artists'/composers' will. To remove this song please click here.

Text color:
Chord color:
Chord grids: 
Font size:    
Page size: 

A5 B5 Bb5 Bbsus2 D5 Dsus2 Eb5 F#5 F5 G5 Gm
Rate #2 of 2 versions

Login - add to songbook

SHARE PAGE  




You need to log in to post comments