Guitar Tabs, Chords and Lyrics
Server problems seems to be fixed. Chordie has been experiencing problems with songs disappearing. These issues now seems to be fixed, but still verifying the fix. If you find anything strange, please email admin@chordie.com.


Idols and Anchors  Parkway Drive

[B-F#-B-E-G#-C#]  
TABBED BY andherembrace
[1]  
 
 --------------------------------------------------------|
 ------10----10------------10----10----------------------|
 ---------12----12------------12----12-------------------|
 12----------------12------------------12----------------|
 --------------------------------------------------------|
 --------------------------------------------------------|

[2]  
 
 --------------------------------------------------------|
 --------------------------------------------------------|
 --------------------------------------------------------|
 --------------------------------------------------------|
 -8----------------5--------------------0----------------|
 -8----------------5--------------------0----------------|

[1]  
 
 ----------------------------------------------------------|
 ------10----10------------13----13------------------------|
 ---------12----12------------10----10---------------------|
 12----------------12------------------14------------------|
 ----------------------------------------------------------|
 ----------------------------------------------------------|

[2]  
 
 ----------------------------------------------------------|
 ----------------------------------------------------------|
 ----------------------------------------------------------|
 ----------------------------------------------------------|
 -8----------------5--------------------0--------------0---|
 -8----------------5--------------------0--000-000-000-0---|

*** *** *** |
0:12
[1]  
 
 ---------------------------------------------------------------------|
 ------10----10----------10----10-------------------------------------|
 ---------12----12----------12----12----------------------------------|
 12----------------12----------------12-------------------------------|
 ---------------------------------------------------------------------|
 -----------------------------------------000-000-000-000---000-000---|

2 *** *** *** *** *** ***
 
 ---------------------------------------------------------------------|
 ---------------------------------------------------------------------|
 ---------------------------------------------------------------------|
 -----7-----7-------------7-----7-------------------------------------|
 -8------3-----3---5---------3-----3--0-------------------------------|
 -8----------------5------------------0---000-000-000-000---000-000---|

*** *** *** *** *** ***
[1]  
 
 --------------------------------------------------------------------------|
 ------10----10------------13----13----------------------------------------|
 ---------12----12------------10----10-------------------------------------|
 12----------------12------------------14----------------------------------|
 ---------------------------------------------------------0----------------|
 --------------------------------------------0-0-00-00-00-0---0-0-00-00-00-|

2 * * ** ** ** * * ** ** **
 
 --------------------------------------------------------------------------|
 ---------------------------------_----------------------------------------|
 --------------------------------/ \---------------------------------------|
 -----7-----7-------------7-----7-8-7--------------------------------------|
 -8------3-----3---5---------3--------10-0----------------0----------------|
 -8----------------5---------------------0---0-0-00-00-00-0---0-0-00-00-00-|

* * ** ** ** * * ** ** **
[1]  
 
 ---------------------------------------------------------------------|
 ------10----10----------10----10-------------------------------------|
 ---------12----12----------12----12----------------------------------|
 12----------------12----------------12-------------------------------|
 ---------------------------------------------------------------------|
 -----------------------------------------000-000-000-000---000-000---|

2 *** *** *** *** *** ***
 
 ---------------------------------------------------------------------|
 ---------------------------------------------------------------------|
 ---------------------------------------------------------------------|
 -----7-----7-------------7-----7-------------------------------------|
 -8------3-----3---5---------3-----3--0-------------------------------|
 -8----------------5------------------0---000-000-000-000---000-000---|

*** *** *** *** *** ***
1 L
 
 ---------------------------------------------------------------------------|
 ------10----10------------13----13-----------------------------------------|
 ---------12----12------------10----10-----------------------------2---2----|
 12----------------12------------------14----------------------------5---5--|
 ---------------------------------------------------------0-----------------|
 --------------------------------------------0-0-00-00-00-0---0-0-----------|

2 * * ** ** ** * * R
 
 ---------------------------------------------------------------------------|
 --------------------------------_------------------------------------------|
 -------------------------------/ \-----------------------------------------|
 -----7-----7-------------7----7-8-7-------------------------------3---3----|
 -8------3-----3---5---------3-------10--0----------------0----------7---7--|
 -8----------------5---------------------0---0-0-00-00-00-0---0-0-----------|

* * ** ** ** * *
0:37
L
 
 ---------------------------------------------------------------------------|
 ---------------------------------------------------------------------------|
 ---------------------------------------------------------------------------|
 0------------------------------^---------------^------------------/\-------|
 0---------8---8---5---8---8---585---5-----8---787----7-----10---101210---8-|
 0-----5-5---5---5---5---5---5-----8---7-7---7-----10---8-8----8--------8---|

* * * * * * * * * * * * * * * *
R
 
 ---------------------------------------------------------------------------|
 ---------------------------------------------------------------------------|
 ---------------------------------------------------------------------------|
 0--------------------------------------------------------------------------|
 0--------------------------------------------------------------------------|
 0--------------------------------------------------------------------------|

L
 
 -----------------------------------------------------------------|
 -----------------------------------------------------------------|
 -----------------------------------------------------------------|
 --------------------------^--------------------------------------|
 -----8---8---5---8---8---585---5-10---10---8---8---7---7---3-----|
 -5-5---5---5---5---5---5-----8------7----7---7---7---7---7-------|

* * * * * * * * * * * * * * |
 
 -----------------------------------------------------------------|
 -----------------------------------------------------------------|
 -----------------------------------------------------------------|
 -----------------------------------------------------------------|
 -5-5------------------------------7--------7--------3----3---3---|
 -5-5------------------------------7--------7--------3----3---3---|

* * | | | | |
0:48
[B]  
 
 ----------------------------------------------------------------------|
 ----------------------------------------------------------------------|
 ----------------------------------------------------------------------|
 --------------------------^---------------^------------------/\-------|
 -----8---8---5---8---8---585---5-----8---787----7-----10---101210---8-|
 -5-5---5---5---5---5---5-----8---7-7---7-----10---8-8----8--------8---|

* * * * * * * * * * * * * * * *
 
 --------------------------------------------------------------------|
 --------------------------------------------------------------------|
 --------------------------------------------------------------------|
 --------------------------^-----------------------------------------|
 -----8---8---5---8---8---585---5-10---10---8---8---7---7---3---3-5~-|
 -5-5---5---5---5---5---5-----8------7----7---7---7---7---7---3------|

* * * * * * * * * * * * * * *
0:58
L
 
 ----------------------------------------------------------------------|
 ----------------------------------------------------------------------|
 ----------------------------------------------------------------------|
 --------------------------^---------------^------------------/\-------|
 -----8---8---5---8---8---585---5-----8---787----7-----10---101210---8-|
 -5-5---5---5---5---5---5-----8---7-7---7-----10---8-8----8--------8---|

* * * * * * * * * * * * * * * *
R
 
 ----------------------------------------------------------------------|
 ----------------------------------------------------------------------|
 --------------------------------------------^---------------/\--------|
 -----7---7-------7---7----/\-----------7---575---5-----8---8108---7---|
 -------------8-----------8128----8-------------7----------------8-----|
 -5-5---5---5---5---5---5------12---7-7---7---------8-8---8------------|

* * * * * * * * * * * * * * * *
L
 
 --------------------------------------------------------------------|
 --------------------------------------------------------------------|
 --------------------------------------------------------------------|
 --------------------------^-----------------------------------------|
 -----8---8---5---8---8---585---5-10---10---8---8---7---7---3---3----|
 -5-5---5---5---5---5---5-----8------7----7---7---7---7---7---3---3--|

* * * * * * * * * * * * * * * *
R
 
 --------------------------------------------------------------------|
 --------------------------------------------------------------------|
 --------------------------------------------------------------------|
 -----7---7-------7---7----/\-------8--8---7---7---5---5---2---2-----|
 -------------8-----------8128----8----------------------------------|
 -5-5---5---5---5---5---5------12----7---7---7---7---7---7---3---3---|

* * * * * * * * * * * * * * * *
1:07
[B]  
 
 --------------------------------------------------------------------------|
 --------------------------------------------------------------------------|
 --_----------------_----------------_---------------------------_---------|
 -/ \--------------/ \--------------/ \----7--------------------/ \----/\--|
 7-8-7------------7-8-7------------7-8-7-------10---8---7---10-710710-7878-|
 -----10-0--0-0-0------10-0--0-0-0------10---0----0---0---0----------------|

* * * * * * * * * *
 
 ---------------------------------------------------------------------|
 ---------------------------------------------------------------------|
 --_----------------_----------------_--------------------------------|
 -/ \--------------/ \--------------/ \-------------------------^-----|
 7-8-7------------7-8-7------------7-8-7---8---7-------------8-787-3--|
 -----10-0--0-0-0------10-0--0-0-0------10---0----0-10-0-5-0----------|

* * * * * * * * * *
 
 --------------------------------------------------------------------------|
 --------------------------------------------------------------------------|
 --_----------------_----------------_---------------------------_---------|
 -/ \--------------/ \--------------/ \----7--------------------/ \----/\--|
 7-8-7------------7-8-7------------7-8-7-------10---8---7---10-710710-7878-|
 -----10-0--0-0-0------10-0--0-0-0------10---0----0---0---0----------------|

* * * * * * * * * *
 
 ---------------------------------------------------------------------|
 ---------------------------------------------------------------------|
 --_----------------_----------------_--------------------------------|
 -/ \--------------/ \--------------/ \-------------------------^-----|
 7-8-7------------7-8-7------------7-8-7---8---7-------------8-787-3--|
 -----10-0--0-0-0------10-0--0-0-0------10---0----0-10-0-5-0----------|

* * * * * * * * * *
1:28
[1] [B]  
 
 -------------------------------------------------------------9-|
 ------10----10------------10----10---------------------------9-|
 ---------12----12------------12----12------------------------H-|
 12----------------12------------------12-----------------------|
 ------------------------------------------------------0--------|
 ------------------------------------------000-000-000-0----0---|

2 | *
 
 ----------------------------------------------------------|
 ----------------------------------------------------------|
 ----------------------------------------------------------|
 ----------------------------------------------------------|
 ---------------------------------------0--------------0---|
 ---------------------------------------0--000-000-000-0---|

*** *** *** |
[1]  
 
 ---------------------------------------------------------------------|
 ------10----10----------10----10-------------------------------------|
 ---------12----12----------12----12----------------------------------|
 12----------------12----------------12-------------------------------|
 ---------------------------------------------------------------------|
 -----------------------------------------000-000-000-000---000-000---|

2 *** *** *** *** *** ***
 
 ---------------------------------------------------------------------|
 ---------------------------------------------------------------------|
 ---------------------------------------------------------------------|
 -----7-----7-------------7-----7-------------------------------------|
 -8------3-----3---5---------3-----3--0-------------------------------|
 -8----------------5------------------0---000-000-000-000---000-000---|

*** *** *** *** *** ***
[1]  
 
 --------------------------------------------------------------------------|
 ------10----10------------13----13----------------------------------------|
 ---------12----12------------10----10-------------------------------------|
 12----------------12------------------14----------------------------------|
 ---------------------------------------------------------0----------------|
 --------------------------------------------0-0-00-00-00-0---0-0-00-00-00-|

2 * * ** ** ** * * ** ** **
 
 --------------------------------------------------------------------------|
 ---------------------------------_----------------------------------------|
 --------------------------------/ \---------------------------------------|
 -----7-----7-------------7-----7-8-7--------------------------------------|
 -8------3-----3---5---------3--------10-0----------------0----------------|
 -8----------------5---------------------0---0-0-00-00-00-0---0-0-00-00-00-|

* * ** ** ** * * ** ** **
1:46
[1]  
 
 -----------------------------------------|
 -----------------------------------------|
 ---^----^----^----^----^----^----^----^--|
 -12-8-12-8-12-8-12-8-12-8-12-8-12-8-12-8-|
 -----------------------------------------|
 -----------------------------------------|

T T T T T T T T
[2]  
 
 -----------------------------------------|
 -----------------------------------------|
 -----------------------------------------|
 -----------------------------------------|
 -8---------------------------------------|
 -8---------------------------------------|

|
[1]  
 
 -------------------------------------------------|
 -------------------------------------------------|
 ---^-----^-----^-----^-----^-----^-----^-----^---|
 -14-10-14-10-14-10-14-10-15-10-15-10-15-10-15-10-|
 -------------------------------------------------|
 -------------------------------------------------|

T T T T T T T T
[1]  
 
 -------------------------------------------------|
 -------------------------------------------------|
 ---^-----^-----^-----^-----^-----^-----^-----^---|
 -17-12-17-12-17-12-17-12-17-12-17-12-17-12-17-12-|
 -------------------------------------------------|
 -------------------------------------------------|

T T T T T T T T
[2]  
 
 -------------------------------------------------|
 -------------------------------------------------|
 -------------------------------------------------|
 -------------------------------------------------|
 -----------------0-------------------------------|
 -0-0-0-0-0-0-0-0-0-------------------------------|

* * * * * * * *
[1]  
 
 -------------------------------------------------|
 -------------------------------------------------|
 ---^-----^-----^-----^-----^-----^-----^-----^---|
 -19-12-19-12-19-12-19-12-14-10-14-10-14-10-14-10-|
 -------------------------------------------------|
 -------------------------------------------------|

T T T T T T T T
[2]  
 
 -------------------------------------------------|
 -------------------------------------------------|
 -------------------------------------------------|
 -------------------------------------------------|
 -----------------0-------------------------------|
 -0-0-0-0-0-0-0-0-0-------------------------------|

* * * * * * * *
1:52
[1]  
 
 -----------------------------------------|
 -----------------------------------------|
 ---^----^----^----^----^----^----^----^--|
 -12-8-12-8-12-8-12-8-12-8-12-8-12-8-12-8-|
 -----------------------------------------|
 -----------------------------------------|

T T T T T T T T
HARMONY
 
 -------------------------------------------------|
 ---^-----^-----^-----^-----^-----^-----^-----^---|
 -14-10-14-10-14-10-14-10-14-10-14-10-14-10-14-10-|
 -------------------------------------------------|
 -------------------------------------------------|
 -------------------------------------------------|

T T T T T T T T
[3]  
 
 -----------------------------------------|
 -----------------------------------------|
 -----------------------------------------|
 -----------------------------------------|
 -8---------------------------------------|
 -8---------------------------------------|

|
[1]  
 
 -------------------------------------------------|
 -------------------------------------------------|
 ---^-----^-----^-----^-----^-----^-----^-----^---|
 -14-10-14-10-14-10-14-10-15-10-15-10-15-10-15-10-|
 -------------------------------------------------|
 -------------------------------------------------|

T T T T T T T T
HARMONY
 
 -----------------------------------------|
 ---^----^----^----^----^----^----^----^--|
 -12-9-12-9-12-9-12-9-14-9-14-9-14-9-14-9-|
 -----------------------------------------|
 -----------------------------------------|
 -----------------------------------------|

T T T T T T T T
[1]  
 
 -------------------------------------------------|
 -------------------------------------------------|
 ---^-----^-----^-----^-----^-----^-----^-----^---|
 -17-12-17-12-17-12-17-12-17-12-17-12-17-12-17-12-|
 -------------------------------------------------|
 -------------------------------------------------|

T T T T T T T T
HARMONY
 
 -------------------------------------------------|
 ---^-----^-----^-----^-----^-----^-----^-----^---|
 -15-10-15-10-15-10-15-10-15-10-15-10-15-10-15-10-|
 -------------------------------------------------|
 -------------------------------------------------|
 -------------------------------------------------|

T T T T T T T T
[3]  
 
 -------------------------------------------------|
 -------------------------------------------------|
 -------------------------------------------------|
 -------------------------------------------------|
 -----------------0-------------------------------|
 -0-0-0-0-0-0-0-0-0-------------------------------|

* * * * * * * *
[1]  
 
 -------------------------------------------------|
 -------------------------------------------------|
 ---^-----^-----^-----^-----^-----^-----^-----^---|
 -19-12-19-12-19-12-19-12-14-10-14-10-14-10-14-10-|
 -------------------------------------------------|
 -------------------------------------------------|

T T T T T T T T
HARMONY
 
 -------------------------------------------------|
 ---^-----^-----^-----^-----^-----^-----^-----^---|
 -14-10-14-10-14-10-14-10-14-10-14-10-14-10-14-10-|
 -------------------------------------------------|
 -------------------------------------------------|
 -------------------------------------------------|

T T T T T T T T
[3]  
 
 -------------------------------------------------|
 -------------------------------------------------|
 -------------------------------------------------|
 -------------------------------------------------|
 -----------------0-------------------------------|
 -0-0-0-0-0-0-0-0-0-------------------------------|

* * * * * * * *
1:59
[1]  
 
 -----------------------------------------|
 -----------------------------------------|
 ---^----^----^----^----^----^----^----^--|
 -12-8-12-8-12-8-12-8-12-8-12-8-12-8-12-8-|
 -----------------------------------------|
 -----------------------------------------|

T T T T T T T T
HARMONY
 
 -------------------------------------------------|
 ---^-----^-----^-----^-----^-----^-----^-----^---|
 -14-10-14-10-14-10-14-10-14-10-14-10-14-10-14-10-|
 -------------------------------------------------|
 -------------------------------------------------|
 -------------------------------------------------|

T T T T T T T T
[3]  
 
 ----------------------------------------------|
 ----------------------------------------------|
 ----------------------------------------------|
 ----------------------------------------------|
 ----------------------------------------------|
 -8--8--8--8--8--8--8--8--8--8--8--8--8--8--8--|

* * * * * * * * * * * * * * *
[1]  
 
 -------------------------------------------------|
 -------------------------------------------------|
 ---^-----^-----^-----^-----^-----^-----^-----^---|
 -14-10-14-10-14-10-14-10-15-10-15-10-15-10-15-10-|
 -------------------------------------------------|
 -------------------------------------------------|

T T T T T T T T
HARMONY
 
 -----------------------------------------|
 ---^----^----^----^----^----^----^----^--|
 -12-9-12-9-12-9-12-9-14-9-14-9-14-9-14-9-|
 -----------------------------------------|
 -----------------------------------------|
 -----------------------------------------|

T T T T T T T T
[3]  
 
 -------------------------------------------------|
 -------------------------------------------------|
 -------------------------------------------------|
 -------------------------------------------------|
 -------------------------------------------------|
 -10-10-10-10-10-10-10-10-10-10-10-10-10-10-10-10-|

* * * * * * * * * * * * * * * *
[1]  
 
 -------------------------------------------------|
 -------------------------------------------------|
 ---^-----^-----^-----^-----^-----^-----^-----^---|
 -17-12-17-12-17-12-17-12-17-12-17-12-17-12-17-12-|
 -------------------------------------------------|
 -------------------------------------------------|

T T T T T T T T
HARMONY
 
 -------------------------------------------------|
 ---^-----^-----^-----^-----^-----^-----^-----^---|
 -15-10-15-10-15-10-15-10-15-10-15-10-15-10-15-10-|
 -------------------------------------------------|
 -------------------------------------------------|
 -------------------------------------------------|

T T T T T T T T
[3]  
 
 --------------------------------------------------|
 --------------------------------------------------|
 --------------------------------------------------|
 --------------------------------------------------|
 --------------------------------------------------|
 -0--0--0--0--0--0--0--0--0--0--0--0--0--0--0--0---|

* * * * * * * * * * * * * * * *
[1]  
 
 -------------------------------------------------|
 -------------------------------------------------|
 ---^-----^-----^-----^-----^-----^-----^-----^---|
 -19-12-19-12-19-12-19-12-14-10-14-10-14-10-14-10-|
 -------------------------------------------------|
 -------------------------------------------------|

T T T T T T T T
HARMONY
 
 -------------------------------------------------|
 ---^-----^-----^-----^-----^-----^-----^-----^---|
 -14-10-14-10-14-10-14-10-14-10-14-10-14-10-14-10-|
 -------------------------------------------------|
 -------------------------------------------------|
 -------------------------------------------------|

T T T T T T T T
[3]  
 
 --------------------------------------------------|
 --------------------------------------------------|
 --------------------------------------------------|
 --------------------------------------------------|
 --------------------------------------------------|
 -0--0--0--0--0--0--0--0--0--0--0--0--0--0--0--0---|

* * * * * * * * * * * * * * * *
[1]  
 
 -----------------------------------------|
 -----------------------------------------|
 ---^----^----^----^----^----^----^----^--|
 -12-8-12-8-12-8-12-8-12-8-12-8-12-8-12-8-|
 -----------------------------------------|
 -----------------------------------------|

T T T T T T T T
HARMONY
 
 -------------------------------------------------|
 ---^-----^-----^-----^-----^-----^-----^-----^---|
 -14-10-14-10-14-10-14-10-14-10-14-10-14-10-14-10-|
 -------------------------------------------------|
 -------------------------------------------------|
 -------------------------------------------------|

T T T T T T T T
[3]  
 
 ----------------------------------------------|
 ----------------------------------------------|
 ----------------------------------------------|
 ----------------------------------------------|
 ----------------------------------------------|
 -8--8--8--8--8--8--8--8--8--8--8--8--8--8--8--|

* * * * * * * * * * * * * * *
[1]  
 
 -------------------------------------------------|
 -------------------------------------------------|
 ---^-----^-----^-----^-----^-----^-----^-----^---|
 -14-10-14-10-14-10-14-10-15-10-15-10-15-10-15-10-|
 -------------------------------------------------|
 -------------------------------------------------|

T T T T T T T T
HARMONY
 
 -----------------------------------------|
 ---^----^----^----^----^----^----^----^--|
 -12-9-12-9-12-9-12-9-14-9-14-9-14-9-14-9-|
 -----------------------------------------|
 -----------------------------------------|
 -----------------------------------------|

T T T T T T T T
[3]  
 
 -------------------------------------------------|
 -------------------------------------------------|
 -------------------------------------------------|
 -------------------------------------------------|
 -------------------------------------------------|
 -10-10-10-10-10-10-10-10-10-10-10-10-10-10-10-10-|

* * * * * * * * * * * * * * * *
[1]  
 
 -------------------------------------------------|
 -------------------------------------------------|
 ---^-----^-----^-----^-----^-----^-----^-----^---|
 -17-12-17-12-17-12-17-12-17-12-17-12-17-12-17-12-|
 -------------------------------------------------|
 -------------------------------------------------|

T T T T T T T T
HARMONY
 
 -------------------------------------------------|
 ---^-----^-----^-----^-----^-----^-----^-----^---|
 -15-10-15-10-15-10-15-10-15-10-15-10-15-10-15-10-|
 -------------------------------------------------|
 -------------------------------------------------|
 -------------------------------------------------|

T T T T T T T T
[3]  
 
 --------------------------------------------------|
 --------------------------------------------------|
 --------------------------------------------------|
 --------------------------------------------------|
 --------------------------------------------------|
 -0--0--0--0--0--0--0--0--0--0--0--0--0--0--0--0---|

* * * * * * * * * * * * * * * *
[1]  
 
 ----------------------------------|
 ----------------------------------|
 ---^-----^-----^-----^------------|
 -19-12-19-12-19-12-19-12--12------|
 --------------------------10\-----|
 ----------------------------------|

T T T T
HARMONY
 
 --------------------------|
 ---^-----^-----^-----^----|
 -14-10-14-10-14-10-14-10--|
 --------------------------|
 --------------------------|
 --------------------------|

T T T T
[3]  
 
 ---------------------------------|
 ---------------------------------|
 ---------------------------------|
 ---------------------------12----|
 ---------------------------10\---|
 -0--0--0--0--0--0--0--0----------|

* * * * * * * *
2:11
 
 --------------------------------------------------------------------------|
 ---__----------------------------------__---------------------------------|
 --/ \--------------------------------/ \--------------------------------|
 -9-10-9-5-7--------------------------9-10-9-5-7--------------------_---5--|
 -7--8-7-3/5--------------------------7--8-7-3/5-------------------/ \--3--|
 -------------0-0-0-0-0-0-0-0-0-0-0-0-------------0-0-0-5-0-3-0-2-2-3-2----|

* * * * * * * * * * * * * *
 
 --------------------------------------------------------------------------|
 ---__----------------------------------__---------------------------------|
 --/ \--------------------------------/ \--------------------------------|
 -9-10-9-5-7--------------------------9-10-9-5-7--------------------_---5--|
 -7--8-7-3/5--------------------------7--8-7-3/5-------------------/ \--3--|
 -------------0-0-0-0-0-0-0-0-0-0-0-0-------------0-0-0-5-0-3-0-2-2-3-2----|

* * * * * * * * * * * * * *
 
 --------------------------------------------------------------------------|
 ---__----------------------------------__---------------------------------|
 --/ \--------------------------------/ \--------------------------------|
 -9-10-9-5-7--------------------------9-10-9-5-7--------------------_---5--|
 -7--8-7-3/5--------------------------7--8-7-3/5-------------------/ \--3--|
 -------------0-0-0-0-0-0-0-0-0-0-0-0-------------0-0-0-5-0-3-0-2-2-3-2----|

* * * * * * * * * * * * * *
 
 ---------------------------------------------------------------------------|
 ---__----------------------------------__----------------------------------|
 --/ \--------------------------------/ \---------------------------------|
 -9-10-9-5-7--------------------------9-10-9-5-7--------------------_-------|
 -7--8-7-3/5--------------------------7--8-7-3/5-------------------/ \------|
 -------------0-0-0-0-0-0-0-0-0-0-0-0-------------0-0-0-5-0-3-0-2-2-3-2-12\-|

* * * * * * * * * * * * * *
2:35
[1]  
 
 ---------------------------------------------------------------------|
 ------10----10----------10----10-------------------------------------|
 ---------12----12----------12----12----------------------------------|
 12----------------12----------------12-------------------------------|
 ---------------------------------------------------------------------|
 -----------------------------------------000-000-000-000---000-000---|

2 *** *** *** *** *** ***
 
 ---------------------------------------------------------------------|
 ---------------------------------------------------------------------|
 ---------------------------------------------------------------------|
 -----7-----7-------------7-----7-------------------------------------|
 -8------3-----3---5---------3-----3--0-------------------------------|
 -8----------------5------------------0---000-000-000-000---000-000---|

*** *** *** *** *** ***
1 R
 
 ---------------------------------------------------------------------------|
 ------10----10------------13----13-----------__----------------__----------|
 ---------12----12------------10----10-------/ \---14-12~-----/ \---12-10~|
 12----------------12-----------------------0-12-14-----------0-12-14-------|
 ---------------------------------------0------------------0----------------|
 ---------------------------------------0------------------0----------------|

2 | L |
 
 ---------------------------------------------------------------------------|
 ---------------------------------_------------_------------------_---------|
 --------------------------------/ \----------/ \---10-9~--------/ \---9-7~-|
 -----7-----7-------------7-----7-8-7--------0-8-10-------------0-8-10------|
 -8------3-----3---5---------3--------10-0-----------------0----------------|
 -8----------------5---------------------0-----------------0----------------|

| |
2:47
[1]  
 
 ------------------------------------------------------------------|
 ----------------------------------__----------------__------------|
 ---------------------------------/ \---14-12~-----/ \---12-10~--|
 -----7-------------7------------0-12-14-----------0-12-14---------|
 -8------10--8--5------8--5--0------------------0------------------|
 -8-------------5------------0------------------0------------------|

2 | |
 
 -----------------------------------------------------------------|
 ----------------------------------_------------------_-----------|
 ---------------------------------/ \---10-9~--------/ \---9-7~---|
 --------------------------------0-8-10-------------0-8-10--------|
 -8-------------5------------0------------------0-----------------|
 -8-------------5------------0------------------0-----------------|

3 | |
 
 ----------------------------------------------------------------|
 ----------------------------------------------------------------|
 ----------------------------------------------------------------|
 ----------------------------------------------------------------|
 ----------------------------------------------------------------|
 --------------------------------000-000-000-000-000-000-000-----|

*** *** *** *** *** *** ***
[1]  
 
 -----------------------------------------------------------------|
 ----------------------------------__----------------__-----------|
 -------------------------7-------/ \---14-12~-----/ \---12-10~-|
 -----7-----10------7------------0-12-14-----------0-12-14--------|
 -8------8------5------8-----0------------------0-----------------|
 -8-------------5------------0------------------0-----------------|

2 | |
 
 -----------------------------------------------------------------|
 ----------------------------------_------------------_-----------|
 ---------------------------------/ \---10-9~--------/ \---9-7~---|
 --------------------------------0-8-10-------------0-8-10--------|
 -8-------------5------------0------------------0-----------------|
 -8-------------5------------0------------------0-----------------|

3 | |
 
 ----------------------------------------------------------------|
 ----------------------------------------------------------------|
 ----------------------------------------------------------------|
 ----------------------------------------------------------------|
 ----------------------------------------------------------------|
 --------------------------------000-000-000-000-000-000-000-----|

*** *** *** *** *** *** ***
2:59
SOLO
 
 --------------------------------------------------__----------------|
 -------------------------------------------------/ \-----^---------|
 -14------12--------17-----15-----14-----12-----12-14-12-10-12-12/14~|
 -15------14------14--14-14--14-14--14-14--14-14---------------------|
 --------------------------------------------------------------------|
 --------------------------------------------------------------------|

* * * * * * * *
 
 -------------------------------------------------------------------|
 -------------------------------------------------------------------|
 -------------------------------------------------------------------|
 -10-------7-------14----------12-----------------------------------|
 --8-------5-------12----------10-----------------------------------|
 --8-------5-------12----------10-----------------------------------|

[1] ____
 
 ---------)---(-------17131317131317131713131713131713--|
 -15/17-17------17~~~-----------------------------------|
 -------------------------------------------------------|
 -------------------------------------------------------|
 -------------------------------------------------------|
 -------------------------------------------------------|

[2]  
 
 -------------------------------------------------------|
 -------------------------------------------------------|
 -------------------------------------------------------|
 -10-----------12-----------------------------14--14----|
 --8-----------10-----12-12-12-12-12-12-12-12-12--12----|
 --8-----------10-----12-12-12-12-12-12-12-12-12--12----|

* * * * * * * *
[1]  
 
 -15121215121215121310101310101310-------13\12------------------|
 ----------------------------------13/15-------13/15------------|
 ----------------------------------------------------12~~~~-----|
 ---------------------------------------------------------------|
 ---------------------------------------------------------------|
 ---------------------------------------------------------------|

[2]  
 
 ---------------------------------------------------------------|
 ---------------------------------------------------------------|
 ---------------------------------------------------------------|
 -------------------------12--12--10-------------------7--------|
 -10-10-10-10-10-10-10-10-10--10---8-------------------5--------|
 -10-10-10-10-10-10-10-10-10--10---8-------------------5--------|

* * * * * * * *
3:14
[1]  
 
 -------------------------------------------------|
 ---^-----^-----^-----^-----^-----^-----^-----^---|
 -14-10-14-10-14-10-14-10-14-10-14-10-14-10-14-10-|
 -------------------------------------------------|
 -------------------------------------------------|
 -------------------------------------------------|

T T T T T T T T
 
 -------------------------------------------------|
 -------------------------------------------------|
 -------------------------------------------------|
 -14----------------------------------------------|
 -12----------------------------------------------|
 -12----------------------------------------------|

[1]  
 
 ------------------------------------------|
 ---^----^----^----^----^----^----^----^---|
 -14-9-14-9-14-9-14-9-12-7-12-7-12-7-12-7--|
 ------------------------------------------|
 ------------------------------------------|
 ------------------------------------------|

T T T T T T T T
[2]  
 
 ------------------------------------------|
 ------------------------------------------|
 ------------------------------------------|
 -12---------------------------------------|
 -10---------------------------------------|
 -10---------------------------------------|

__ __
1 / \ / \
 
 -------10-12-10----------12-13-12-------|
 -----10--------10------13--------13-----|
 ---10------------10--14------------14---|
 -12----------------15-------------------|
 ----------------------------------------|
 ----------------------------------------|

* * * * * *
HARMONY _ __
/ \ / \
 
 -------5-7-5------------8-10-8----------|
 -----6-------6--------8--------8--------|
 ---7-----------7----9------------9------|
 -8---------------10---------------------|
 ----------------------------------------|
 ----------------------------------------|

* * * * * *
[3]  
 
 ----------------------------------------|
 ----------------------------------------|
 ----------------------------------------|
 10----------------12--------------------|
 -8----------------10--------------------|
 -8----------------10--------------------|

__
1 ) (^
 
 -17-13-------17-13-------15-13--------15----13-15----------|
 -------17-13-------17-13-------17-13-----------------------|
 -----------------------------------------------------------|
 -----------------------------------------------------------|
 -----------------------------------------------------------|
 -----------------------------------------------------------|

[2]  
 
 -----------------------------------------------------------|
 -----------------------------------------------------------|
 -----------------------------------------------------------|
 -------14----------14----------12----------12--10----------|
 -12----12----12----12----10----10----10----10---8----------|
 -12----------12----------10----------10---------8----------|

1 ____ __
 
 -13-15----)---(-----------20----------20----------17------------/ \------|
 --------17------17~----------18-17-------18-17-------20-18-17-17-18-17-13-|
 -----------------------------------19----------19-------------------------|
 --------------------------------------------------------------------------|
 --------------------------------------------------------------------------|
 --------------------------------------------------------------------------|

[2]  
 
 -------------------------------------------------------------------------|
 -------------------------------------------------------------------------|
 -------------------------------------------------------------------------|
 --------7------------------14-----------------------12-------------------|
 --------5------------------12-----------------------10-------------------|
 --------5------------------12-----------------------10-------------------|

[1]  
 
 ---------------------------------------------------------------|
 -10-------------------8-------------\-------5------------------|
 ---------------------------------------------------------------|
 ---------------------------------------------------------------|
 ---------------------------------------------------------------|
 ---------------------------------------------------------------|

[2]  
 
 ---------------------------------------------------------------|
 ---------------------------------------------------------------|
 ---------------------------------------------------------------|
 -10------------------12----------------------14----------------|
 --8------------------10----------------------12----------------|
 --8------------------10----------------------12----------------|


Important: The song above is NOT stored on the Chordie server. The original song is hosted at www.guitartabs.cc. Chordie works as a search engine and provides on-the-fly formatting. Chordie does not index songs against artists'/composers' will. To remove this song please click here.

Text color:
Chord color:
Chord grids: 
Font size:    
Page size: 

B
Rate #1 of 1 versions

Login - add to songbook

SHARE PAGE  




You need to log in to post comments