Guitar Tabs, Chords and Lyrics
Major upgrade!! After one year development the new version of Chordie is now online! Please give feedback.


Mutiny  Parkway Drive

[B-F#-B-E-G#-C#]  
TABBED BY andherembrace
L
 
 ---------------------------------------------------------------------|
 ---------------------------------------------------------------------|
 ---------------------------------------------------------------------|
 ---------------------------------------------------------------------|
 -1-0---1-0-1-4-1-0---1-0-1-4-1-0---1-0-1-4-3-3-3-3-4-4-4-4-1-1-1-1-4~|
 -1-0---1-0-1-4-1-0---1-0-1-4-1-0---1-0-1-4---------------------------|

* * * * * * * * * * * *
R
 
 ---------------------------------------------------------------------|
 ---------------------------------------------------------------------|
 ---------------------------------------------------------------------|
 ---------------------------------------------------------------------|
 -1-0---------------------------------------3-3-3-3-4-4-4-4-1-1-1-1-4~|
 -1-0-----------------------------------------------------------------|

*
[B]  
 
 ----------------------------------------------------------------------|
 ----------------------------------------------------------------------|
 ----------------------------------------------------------------------|
 ----------------------------------------------------------------------|
 -1-0---1-0-1-4-1-0---1-0-1-4-1-0---1-0-1-4-3-3-3-3--------------------|
 -1-0---1-0-1-4-1-0---1-0-1-4-1-0---1-0-1-4---------4-4-4-4-3-3-3-3-1~-|

* * * * * * * * * * * *
 
 ---------------------------------------------------------------------|
 ---------------------------------------------------------------------|
 ---------------------------------------------------------------------|
 ---------------------------------------------------------------------|
 -1-0---1-0-1-4-1-0---1-0-1-4-1-0---1-0-1-4-3-3-3-3-4-4-4-4-1-1-1-1-4~|
 -1-0---1-0-1-4-1-0---1-0-1-4-1-0---1-0-1-4---------------------------|

* * * * * * * * * * * *
 
 ----------------------------------------------------------------------|
 ----------------------------------------------------------------------|
 ----------------------------------------------------------------------|
 ----------------------------------------------------------------------|
 -1-0---1-0-1-4-1-0---1-0-1-4-1-0---1-0-1-4-3-3-3-3--------------------|
 -1-0---1-0-1-4-1-0---1-0-1-4-1-0---1-0-1-4---------4-4-4-4-3-3-3-3-1~-|

* * * * * * * * * * * *
0:30
L
 
 -----------------------------------------------------------------|
 -----------------------------------------------------------------|
 -----------------------------------------------------------------|
 -----------------------------------------------------------------|
 -5-------------------------------------------------------15------|
 -5-------------------------------------------------------15\-----|

|
R
 
 ------------------------------------------------------------------|
 ------------------------------------------------------------------|
 ------------------------------------------------------------------|
 ------------------------------------------------------------------|
 -----55556666----55556666----1111----55556666----5555666688885555-|
 -5555--------6666--------1111----3333--------5555-----------------|

L
 
 ---------------------------------------------------------------|
 ---------------------------------------------------------------|
 ---------------------------------------------------------------|
 --------------------------------------------------------P------|
 -5-----------6-----------1------3------------5-----------S-----|
 -5-----------6-----------1------3------------5------------\----|

| | | |
R
 
 ------------------------------------------------------------------|
 ------------------------------------------------------------------|
 ------------------------------------------------------------------|
 ------------------------------------------------------------------|
 -----55556666----55556666----1111----55556666----5555666688885555-|
 -5555--------6666--------1111----3333--------5555-----------------|

0:39
[B]  
 
 ------------------------------------------------------------------|
 ------------------------------------------------------------------|
 ------------------------------------------------------------------|
 ------------------------------------------------------------------|
 -----55556666----55556666----1111----55556666----5555666688885555-|
 -5555--------6666--------1111----3333--------5555-----------------|
 ------------------------------------------------------------------|
 ------------------------------------------------------------------|
 ------------------------------------------------------------------|
 ------------------------------------------------------------------|
 -----55556666----55556666----1111----55556666----5555666688885555-|
 -5555--------6666--------1111----3333--------5555-----------------|

0:48
L
 
 -----------------------------------------------------------------|
 -----------------------------------------------------------------|
 -----------------------------------------------------------------|
 -----------------------------------------------------------------|
 -----------------------------------------------------------------|
 -555-555-555-666-666-666-111-111-333-333-333-555-555-555-555-555-|

*** *** *** *** *** *** *** *** *** *** *** *** *** *** *** ***
R
 
 ------------------------------------------------------------------|
 ------------------------------------------------------------------|
 ------------------------------------------------------------------|
 ------------------------------------------------------------------|
 -----55556666----55556666----1111----55556666----5555666688885555-|
 -5555--------6666--------1111----3333--------5555-----------------|

L
 
 -----------------------------------------------------------------|
 -----------------------------------------------------------------|
 -----------------------------------------------------------------|
 -----------------------------------------------------------------|
 -----------------------------------------------------------------|
 -555-555-555-666-666-666-111-111-333-333-333-555-555-555-555-555-|

*** *** *** *** *** *** *** *** *** *** *** *** *** *** *** ***
R
 
 ------------------------------------------------------------------|
 ------------------------------------------------------------------|
 ------------------------------------------------------------------|
 ------------------------------------------------------------------|
 -----55556666----55556666----1111----55556666----5555666688885555-|
 -5555--------6666--------1111----3333--------5555-----------------|

0:58
L
 
 ------------------------------------------------------------------|
 ---------------------------------------------------------H-H------|
 ---------------------------------------------------------5-5-H-H--|
 -------------------------------------------------------------5-5--|
 -----5-5-6-6-----5-5-6-6-8-8-6-6-----5-5-6-6-----5-5-6-6----------|
 -5-5---------6-6-----------------3-3---------5-5------------------|

* * * * * * * *
R
 
 ------------------------------------------------------------------|
 ---------------------------------------------------------H-H------|
 ---------------------------------------------------------5-5-H-H--|
 -------------------------6-6-5-5-----------------------------5-5--|
 -----5-5-6-6-----5-5-6-6-------------5-5-6-6-----5-5-6-6----------|
 -5-5---------6-6-----------------3-3---------5-5------------------|

* * * * * * * *
L
 
 ------------------------------------------------------------------|
 ---------------------------------------------------------H-H------|
 ---------------------------------------------------------5-5-H-H--|
 -------------------------------------------------------------5-5--|
 -----5-5-6-6-----5-5-6-6-8-8-6-6-----5-5-6-6-----5-5-6-6----------|
 -5-5---------6-6-----------------3-3---------5-5------------------|

* * * * * * * *
R
 
 ------------------------------------------------------------------|
 ---------------------------------------------------------H-H------|
 ---------------------------------------------------------5-5-H-H--|
 -------------------------6-6-5-5-----------------------------5-5--|
 -----5-5-6-6-----5-5-6-6-------------5-5-6-6-----5-5-6-6----------|
 -5-5---------6-6-----------------3-3---------5-5------------------|

* * * * * * * *
L
 
 ------------------------------------------------------------------|
 ---------------------------------------------------------H-H------|
 ---------------------------------------------------------5-5-H-H--|
 -------------------------------------------------------------5-5--|
 -----5-5-6-6-----5-5-6-6-8-8-6-6-----5-5-6-6-----5-5-6-6----------|
 -5-5---------6-6-----------------3-3---------5-5------------------|

* * * * * * * *
R
 
 ------------------------------------------------------------------|
 ---------------------------------------------------------H-H------|
 ---------------------------------------------------------5-5-H-H--|
 -----3-3-5-5-----5-5-5-5-6-6-5-5-----3-3-5-5-----5-5-5-5-----5-5--|
 ------------------------------------------------------------------|
 -5-5---------6-6-----------------3-3---------5-5------------------|

* * * * * * * *
L
 
 ----------------------------------------------------------------|
 ----------------------------------------------------------------|
 ----------------------------------------------------------------|
 ----------------------------------------------------------------|
 -----5-5-6-6-----5-5-6-6-8-8-6-6-----5-5-6-6-----5-5-6-6--------|
 -5-5---------6-6-----------------3-3---------5-5-----------17\--|

* * * * * * * *
R
 
 ----------------------------------------------------------------|
 ----------------------------------------------------------------|
 ----------------------------------------------------------------|
 -----3-3-5-5-----5-5-5-5-6-6-5-5-----3-3-5-5-----5-5-5-5--------|
 ----------------------------------------------------------------|
 -5-5---------6-6-----------------3-3---------5-5------------17\-|

* * * * * * * *
1:20
[B]  
 
 ---------------------------------------------------------------------|
 ---------------------------------------------------------------------|
 ---------------------------------------------------------------------|
 ---------------------------------------------------------------------|
 -1-0---1-0-1-4-1-0---1-0-1-4-1-0---1-0-1-4-3-3-3-3-4-4-4-4-1-1-1-1-4~|
 -1-0---1-0-1-4-1-0---1-0-1-4-1-0---1-0-1-4---------------------------|

* * * * * * * * * * * *
 
 -----------------------------------------------------------------------|
 -----------------------------------------------------------------------|
 -----------------------------------------------------------------------|
 -------------------------------------------------------------------PH--|
 -1-0---1-0-1-4-1-0---1-0-1-4-1-0---1-0-1-4-3-3-3-3-----------------4~~-|
 -1-0---1-0-1-4-1-0---1-0-1-4-1-0---1-0-1-4---------4-4-4-4-3-3-3-3-----|

* * * * * * * * * * * *
 
 --------------------------------------------------------------------------|
 --------------------------------------------------------------------------|
 --------------------------------------------------------------------------|
 --------------------------------------------------------------------------|
 1-0-0-0-1-0-1-4-1-0-0-0-1-0-1-4-1-0-0-0-1-0-1-4-3-3-3-3-4-4-4-4-1-1-1-1-4~|
 1-0-0-0-1-0-1-4-1-0-0-0-1-0-1-4-1-0-0-0-1-0-1-4---------------------------|

* * * * * * * * * * * * * * * * * * * * * * * *
 
 -------------------------------------------------------------------------|
 -------------------------------------------------------------------------|
 -------------------------------------------------------------------------|
 -------------------------------------------------------------------------|
 1-0-0-0-1-0-1-4-1-0-0-0-1-0-1-4-1-0-0-0-1-0-1-4-3-3-3-3------------------|
 1-0-0-0-1-0-1-4-1-0-0-0-1-0-1-4-1-0-0-0-1-0-1-4---------4-4-4-4-3-3-3-3-1|

* * * * * * * * * * * * * * * * * * * * * * * *
1;46
[B]  
 
 ------------------------------------------------------------------|
 ------------------------------------------------------------------|
 ------------------------------------------------------------------|
 ------------------------------------------------------------------|
 -----55556666----55556666----1111----55556666----5555666688885555-|
 -5555--------6666--------1111----3333--------5555-----------------|
 ------------------------------------------------------------------|
 ------------------------------------------------------------------|
 ------------------------------------------------------------------|
 ------------------------------------------------------------------|
 -----55556666----55556666----1111----55556666----5555666688885555-|
 -5555--------6666--------1111----3333--------5555-----------------|

L
 
 ------------------------------------------------------------------------|
 ------------------------------------------------------------------------|
 ------------------------------------------------------------------------|
 ------------------------------------------------------------------------|

666633338888555510101010666688885555666633338888555510101010666688885555|
 
 ------------------------------------------------------------------------|

R
 
 ---------------------------------------------------------|
 ---------------------------------------------------------|
 ---------------------------------------------------------|
 ---------------------------------------------------------|

10101010888812121212101010101313131310101010121212128888-|
 
 ---------------------------------------------------------|

RCONT.
 
 ---------------------------------------------------------|
 ---------------------------------------------------------|
 ---------------------------------------------------------|
 ---------------------------------------------------------|

10101010888812121212101010101313131310101010121212128888-|
 
 ---------------------------------------------------------|

L
 
 ------------------------------------------------------------------------|
 ------------------------------------------------------------------------|
 ------------------------------------------------------------------------|
 ------------------------------------------------------------------------|

66663333888855551010101066668888555566663333888855551010101066668888-3~~|
 
 ------------------------------------------------------------------------|

R
 
 ---------------------------------------------------------|
 ---------------------------------------------------------|
 ---------------------------------------------------------|
 ---------------------------------------------------------|

10101010888812121212101010101313131310101010121212128888-|
 
 ---------------------------------------------------------|

RCONT.
 
 -------------------------------------------------------------|
 -------------------------------------------------------------|
 -------------------------------------------------------------|
 -------------------------------------------------------------|

1010101088881212121210101010131313131010101012121212-8~~~----|
 
 -------------------------------------------------------------|

2:08
B L R B R B
 
 -------------------------------------------------------------|
 -------------------------------------------------------------|
 -------------------------------------------------------------|
 -------------------------------------------------------------|
 -0--0--0--0--000--000--000-----0--0--0--0--000--000--00-3-5--|
 -0--0--0--0--000--000--000-----0--0--0--0--000--000--00-3-5--|

* * * *** *** *** * * * *** *** **
 
 -------------------------------------------------------------|
 -------------------------------------------------------------|
 --------------------------------------------------------5-7--|
 --------------------------------------------------------X-X--|
 -0--0--0--0--000--000--000-----0--0--0--0--000--000--00-3-5--|
 -0--0--0--0--000--000--000-----0--0--0--0--000--000--00------|

* * * *** *** *** * * * *** *** **
2:29
 
 -------------------------------------------------------------------|
 -------------------------------------------------------------------|
 -------------7-10---9-5------5-9---------------7-10---9-5------9-5-|
 -------------X-X----X-X------X-X---------------X-X----X-X------X-X-|
 -0-000-00-0--5/8----7\3------3/7---0-000-00-0--5/8----7\3------7\3-|
 -0-000-00-0------00-----0000-------0-000-00-0------00-----0000-----|

* *** ** ** **** * *** ** ** ****
 
 ------------------------------------------------------|
 ------------------------------------------------------|
 -------------7-10---9-5------5-9---------------7-10---|
 -------------X-X----X-X------X-X---------------X-X----|
 -0-000-00-0--5/8----7\3------3/7---0-000-00-0--5/8----|
 -0-000-00-0------00-----0000-------0-000-00-0------00-|

* *** ** ** **** * *** ** **
L
 
 ----___________________---------|
 ---/ \--------|
 -10-0-9-0-7-0-9-0-7-0-5-0-------|
 --------------------------5~----|
 --------------------------PH----|
 --------------------------------|

R
 
 ----_______________________------|
 ---/ \-----|
 -14-0-12-0-10-0-12-0-10-0-9-0----|
 ------------------------------9~-|
 ------------------------------PH-|
 ---------------------------------|

2:43
L
 
 --------------------------------------------------------------------|
 --------------------------------------------------------------------|
 -------------7-10---9-5------5-9---------------7-10---9-5------9-5--|
 -------------X-X----X-X------X-X---------------X-X----X-X------X-X--|
 -0-000-00-0--5/8----7\3------3/7---0-000-00-0--5/8----7\3------7\3--|
 -0-000-00-0------00-----0000-------0-000-00-0------00-----0000------|

* *** ** ** **** * *** ** ** ****
R
 
 -------------------------------------------------------------------|
 -------------------------------------------------------------------|
 -----------10-14---12-9------9-12--------------7-10---9-5------5-9-|
 ------------X-X-----X-X------X-X---------------X-X----X-X------X-X-|
 -0-000-00-0-8/12---10\7------7/10--0-000-00-0--5/8----7\3------3/7-|
 -0-000-00-0------00-----0000-------0-000-00-0------00-----0000-----|

* *** ** ** **** * *** ** ** ****
L
 
 --------------------------------------------------------|
 --------------------------------------------------------|
 -------------7-10---9-5------5-9---------------7-10-----|
 -------------X-X----X-X------X-X---------------X-X------|
 -0-000-00-0--5/8----7\3------3/7---0-000-00-0--5/8------|
 -0-000-00-0------00-----0000-------0-000-00-0------00---|

* *** ** ** **** * *** ** **
R
 
 ------------------------------------------------------|
 ------------------------------------------------------|
 -----------10-14---12-9------9-12--------------7-10---|
 ------------X-X-----X-X------X-X---------------X-X----|
 -0-000-00-0-8/12---10\7------7/10--0-000-00-0--5/8----|
 -0-000-00-0------00-----0000-------0-000-00-0------00-|

* *** ** ** **** * *** ** **
L
 
 ----___________________---------|
 ---/ \--------|
 -10-0-9-0-7-0-9-0-7-0-5-0-------|
 --------------------------5~----|
 --------------------------PH----|
 --------------------------------|

R
 
 ----_______________________------|
 ---/ \-----|
 -14-0-12-0-10-0-12-0-10-0-9-0----|
 ------------------------------9~-|
 ------------------------------PH-|
 ---------------------------------|

2:57
[B]  
 
 ---------------------------------------------------------------------|
 ---------------------------------------------------------------------|
 ---------------------------------------------------------------------|
 ---------------------------------------------------------------------|
 -1-0---1-0-1-4-1-0---1-0-1-4-1-0---1-0-1-4-3-3-3-3-4-4-4-4-1-1-1-1-4~|
 -1-0---1-0-1-4-1-0---1-0-1-4-1-0---1-0-1-4---------------------------|

* * * * * * * * * * * *
 
 ---------------------------------------------------------------------|
 ---------------------------------------------------------------------|
 ---------------------------------------------------------------------|
 ---------------------------------------------------------------------|
 -1-0---1-0-1-4-1-0---1-0-1-4-1-0---1-0-1-4-3-3-3-3-----------------1-|
 -1-0---1-0-1-4-1-0---1-0-1-4-1-0---1-0-1-4---------4-4-4-4-3-3-3-3-1-|

* * * * * * * * * * * *
 
 ---------|
 ---------|
 ---------|
 ---------|
 -1-0-----|
 -1-0-----|

* |

Important: The song above is NOT stored on the Chordie server. The original song is hosted at www.guitartabs.cc. Chordie works as a search engine and provides on-the-fly formatting. Chordie does not index songs against artists'/composers' will. To remove this song please click here.

Text color:
Chord color:
Chord grids: 
Font size:    
Page size: 

B
Rate #0 of 1 versions

Jango Player

Login - add to songbook

SHARE PAGE  




You need to log in to post comments