Guitar Tabs, Chords and Lyrics
Server problems seems to be fixed. Chordie has been experiencing problems with songs disappearing. These issues now seems to be fixed, but still verifying the fix. If you find anything strange, please email admin@chordie.com.


Picture Perfect, Pathetic  Parkway Drive

PICTURE PERFECT,PATHETIC
[B-F#-B-E-G#-C#]  
TABBED BY andherembrace
L
 
 --------------------------------------------------------|
 --------------------------------------------------------|
 --------------------------------------------------------|
 --/\---/\-------------------/\---/\---------------------|
 -5858-3737-0-----8---5-----5858-3737-0-----10---8-------|
 -----------0-0-0---0---0-0-----------0-0-0----0---0-0---|

* * * * * * * * * *
R
 
 --------------------------------------------------------|
 --------------------------------------------------------|
 --------------------------------------------------------|
 --/\---/\-------------------/\---/\---------------------|
 -5858-3737-0---------------5858-3737-0------------------|
 -----------0-|-----------------------0-|----------------|

L
 
 --------------------------------------------------------------------|
 --------------------------------------------------------------------|
 --------------------------------------------------------------------|
 --/\---/\------------------1010101088887777777788887777-------------|
 -5858-3737-0-----8---5---------------------------------101010108888-|
 -----------0-0-0---0---0-0------------------------------------------|

* * * * *
R
 
 ---------------------------------------------------------------------|
 ---------------------------------------------------------------------|
 ---------------------------------------------------------------------|
 --/\---/\------------------1010101088887777777788887777--------------|
 -5858-3737-0-------------------------------------------101010108888--|
 -----------0-|-------------------------------------------------------|

0:09
[B]  
 
 --------------------------------------------------------|
 --------------------------------------------------------|
 --------------------------------------------------------|
 --/\---/\-------------------/\---/\---------------------|
 -5858-3737-0-----8---5-----5858-3737-0-----10---8-------|
 -----------0-0-0---0---0-0-----------0-0-0----0---0-0---|

* * * * * * * * * *
 
 --------------------------------------------------------------------|
 --------------------------------------------------------------------|
 --------------------------------------------------------------------|
 --/\---/\------------------1010101088887777777788887777-------------|
 -5858-3737-0-----8---5---------------------------------101010108888-|
 -----------0-0-0---0---0-0------------------------------------------|

* * * * *
0:17
L
 
 --------------------------------------------------------|
 --------------------------------------------------------|
 --------------------------------------------------------|
 --/\---/\-------------------/\---/\---------------------|
 -5858-3737-0-----8---5-----5858-3737-0-----10---8-------|
 -----------0-0-0---0---0-0-----------0-0-0----0---0-0---|

* * * * * * * * * *
R
 
 --------------------------------------------------------|
 --------------------------------------------------------|
 --------------------------------------------------------|
 --/\---/\--------7----------/\---/\--------8----7-------|
 -5858-3737-0---------8-----5858-3737-0------------------|
 -----------0-0-0---0---0-0-----------0-0-0----0---0-0---|

* * * * * * * * * *
L
 
 --------------------------------------------------------------------|
 --------------------------------------------------------------------|
 --------------------------------------------------------------------|
 --/\---/\------------------1010101088887777777788887777-------------|
 -5858-3737-0-----8---5---------------------------------101010108888-|
 -----------0-0-0---0---0-0------------------------------------------|

* * * * *
R
 
 -----------------------------------------------------------------------|
 -----------------------------------------------------------------------|
 -----------------------------_------_------____------------------------|
 --/\---/\--------7----------/ \----/ \----/ \-----------------------|
 -5858-3737-0---------8-----812812-810810-78787878-10101010888877775555-|
 -----------0-0-0---0---0-0---------------------------------------------|

* * * * *
0:26
L
 
 --------------------------------------------------------|
 --------------------------------------------------------|
 --------------------------------------------------------|
 --/\---/\-------------------/\---/\---------------------|
 -5858-3737-0-----8---5-----5858-3737-0-----10---8-------|
 -----------0-0-0---0---0-0-----------0-0-0----0---0-0---|

* * * * * * * * * *
R
 
 --------------------------------------------------------|
 --------------------------------------------------------|
 --------------------------------------------------------|
 --/\---/\--------7----------/\---/\--------8----7-------|
 -5858-3737-0---------8-----5858-3737-0------------------|
 -----------0-0-0---0---0-0-----------0-0-0----0---0-0---|

* * * * * * * * * *
L
 
 -------------------------------------------------------------------------|
 -------------------------------------------------------------------------|
 --------------------------5-3-2---3-2-----7-5-----5-------7-5-----5------|
 -/\---/\------------------------5----5-3------8-7---8-7-5-----8-7---8-7-5|
 5858-3737-0-----8---5----------------------------------------------------|
 ----------0-0-0---0---0-0------------------------------------------------|

* * * * *
R
 
 -------------------------------------------------------------------------|
 -------------------------------------------------------------------------|
 --------------------------5-3-2---3-2-----7-5-----5-------10-9-7--9-7----|
 -/\---/\--------7---------------5----5-3------8-7---8-7-5-------10---10-8|
 5858-3737-0---------8----------------------------------------------------|
 ----------0-0-0---0---0-0------------------------------------------------|

* * * * *
0:35
L
 
 --------------------------------------------------------------------|
 ----------------------------------------------------------/\--------|
 ---------------------------------------------------------01012--/\--|
 ----7-----------5--------------------7-----------5-------------01012|
 --------8---5-------7----5---3-5---------8---5-------7--------------|
 0-0---0---0---0---0---0----0-----0-0---0---0---0---0---0------------|

* * * * * * * * * * * * * * *
R
 
 --------------------------------------------------------------------|
 ----------------------------------------------------------/\--------|
 ---------------------------------------------------------01012--/\--|
 ----------------5---7----------------10--7-------5---7---------01012|
 0-0---------------------8----7-8-------------8----------------------|
 0-0---------------0---0----0-----0-0---0---0---0---0---0------------|

* * * * * * * * * * * *
L
 
 ---------------------------------------------------------------------------|
 ---------------------------------------------------------------------------|
 ---------------------------------------------------------------------------|
 ----7----------5--------------------7--------------------------------------|
 --------8--5-------7----5---3-5---------8---5---1212-8-1212-8-1010-7-1010-7|
 0-0---0--0---0---0---0----0-----0-0---0---0---0----------------------------|

* * * * * * * * * * * * * * * * * * * * * * * * *
R
 
 ---------------------------------------------------------------------------|
 ---------------------------------------------------------------------------|
 ---------------------------------------------------------------------------|
 ---10---7------5---7----------------10--7----------------------------------|
 -----------8-----------8----7-8-------------8---1212-8-1212-8-1010-7-1010-7|
 0-0---0--0---0---0---0----0-----0-0---0---0---0----------------------------|

* * * * * * * * * * * * * * * * * * * * * * * * *
0:45
L
 
 --------------------------------------------------------------------|
 ----------------------------------------------------------/\--------|
 ---------------------------------------------------------01012--/\--|
 ----7-----------5--------------------7-----------5-------------01012|
 --------8---5-------7----5---3-5---------8---5-------7--------------|
 0-0---0---0---0---0---0----0-----0-0---0---0---0---0---0------------|

* * * * * * * * * * * * * * *
R
 
 --------------------------------------------------------------------|
 ----------------------------------------------------------/\--------|
 ---------------------------------------------------------01012--/\--|
 0---------------7----------------8-------------5---------------01012|
 0---------------7----------------8-------------5--------------------|
 0---------------7----------------8-------------5--------------------|

L
 
 ----------------------------------------------------------------------------|
 ----------------------------------------------------------------------------|
 ----------------------------------------------------------------------------|
 ----7-----------5--------------------7--------------------------------------|
 --------8---5-------7----5---3-5---------8---5---1212-8-1212-8-1010-7-1010-7|
 0-0---0---0---0---0---0----0-----0-0---0---0---0----------------------------|

* * * * * * * * * * * * * * * * * * * * * * * * *
R
 
 ----------------------------------------------------------------------------|
 ----------------------------------------------------------------------------|
 ----------------------------------------------------------------------------|
 0---------------7----------------8------------------------------------------|
 0---------------7----------------8---------------1212-8-1212-8-1010-7-1010-7|
 0---------------7----------------8------------------------------------------|

* * * * * * * * * * * *
0:55
L
 
 --------------------------------------------------------------------|
 ----------------------------------------------------------/\--------|
 ---------------------------------------------------------01012--/\--|
 ----7-----------5--------------------7-----------5-------------01012|
 --------8---5-------7----5---3-5---------8---5-------7--------------|
 0-0---0---0---0---0---0----0-----0-0---0---0---0---0---0------------|

* * * * * * * * * * * * * * *
R
 
 ---------------------------------------------------------------------|
 ----------------------------------------------------------/\---------|
 ---------------------------------------------------------01012--/\---|
 ---------------------------------------------------------------01012-|
 0-0--------------0-0---0-0--------0-0--------------0-0---------------|
 0-0---------0000-0-0---0-0--------0-0---------0000-0-0---------------|

* * **** * * * * * * **** * *
L
 
 ----------------------------------------------------|
 ----------------------------------------------------|
 ----------------------------------------------------|
 ----7-----------5--------------------7--------------|
 --------8---5-------7----5---3-5---------8---5------|
 0-0---0---0---0---0---0----0-----0-0---0---0---0----|

* * * * * * * * * * * * *
R
 
 ---------------------------------------------------|
 ---------------------------------------------------|
 ---------------------------------------------------|
 ---------------------------------------------------|
 0-0--------------0-0---0-0--------0-0---------0----|
 0-0---------0000-0-0---0-0--------0-0---------0----|

* * **** * * * * * * *
L
 
 ----------_------------_------------_-----------_-----|
 ---_-----/ \----_-----/ \----_-----/ \----_----/ \----|
 --/ \---01012--/ \---01012--/ \---01012--/ \--01012---|
 -01012--------01012--------01012--------01012---------|
 ------------------------------------------------------|
 ------------------------------------------------------|

R
 
 ---_------------_------------_-----------_------------|
 --/ \----_-----/ \----_-----/ \----_----/ \----_------|
 -01012--/ \---01012--/ \---01012--/ \--01012--/ \-----|
 -------01012--------01012--------01012-------01012----|
 ------------------------------------------------------|
 ------------------------------------------------------|

1:07
L
 
 ----------------------------------------------------------------|
 ----------------------------------------------------------------|
 ----------------------------------------------------------------|
 -0--------------------------------------------0-------0-----0---|
 -0--------------------------------------------0-0-0-0-0-0-0-0---|
 -0-|------------------------------------------0-0-0-0-0-0-0-0-|-|

R
 
 ----------------------------------------------------------------|
 ----------------------------------------------------------------|
 ------------------^---------^----^---^---^---^------------------|
 -0-------0-------870-------8-0-10-0-8-0-750-870-------0-----0---|
 -0-0-0-0-0-0-0-0-----0-0-0----------------------0-0-0-0-0-0-0---|
 -0-0-0-0-0-0-0-0-----0-0-0----------------------0-0-0-0-0-0-0-|-|

* * * * * * * * * * * * * *
1:15
[B]  
 
 -----------------------------------------------|
 -----------------------------------------------|
 --^-----------------^---------^----^---^---^---|
 -870-------0-------870-------8-0-10-0-8-0-750--|
 -----0-0-0-0-0-0-0-----0-0-0-------------------|
 -----0-0-0-0-0-0-0-----0-0-0-------------------|

* * * * * * * * *
 
 -----------------------------------------------|
 -----------------------------------------------|
 --^-----------------^---------^----^---^---^---|
 -870-------0-------870-------8-0-10-0-8-0-750--|
 -----0-0-0-0-0-0-0-----0-0-0-------------------|
 -----0-0-0-0-0-0-0-----0-0-0-------------------|

* * * * * * * * *
 
 -----------------------------------------------|
 -----------------------------------------------|
 --^-----------------^---------^----^---^---^---|
 -870-------0-------870-------8-0-10-0-8-0-750--|
 -----0-0-0-0-0-0-0-----0-0-0-------------------|
 -----0-0-0-0-0-0-0-----0-0-0-------------------|

* * * * * * * * *
 
 ------------------------------------------|
 ------------------------------------------|
 --^-----------------^---------^----^---^--|
 -870-------0-------870-------8-0-10-0-8-0-|
 -----0-0-0-0-0-0-0-----0-0-0--------------|
 -----0-0-0-0-0-0-0-----0-0-0--------------|

* * * * * * * * *
1:28
L
 
 -----------------------------------------|
 -----------------------------------------|
 -----------------------------------------|
 --^--------0-------^--------777555777888-|
 -870-0-0-0-0------870-0-0-0--------------|
 -----0-0-0-0----------0-0-0--------------|

* * * * * *
R
 
 --------------------------------------------|
 --------------------------------------------|
 --^----------------^------------------------|
 -870-------0------870-------777888101010888-|
 -----0-0-0-0----------0-0-0-----------------|
 -----0-0-0-0----------0-0-0-----------------|

* * * * * *
L
 
 -----------------------------------------|
 -----------------------------------------|
 -----------------------------------------|
 --^--------0-------^--------777555777888-|
 -870-0-0-0-0------870-0-0-0--------------|
 -----0-0-0-0----------0-0-0--------------|

* * * * * *
R
 
 --------------------------------------------|
 --------------------------------------------|
 --^----------------^------------------------|
 -870-------0------870-------777888101010888-|
 -----0-0-0-0----------0-0-0-----------------|
 -----0-0-0-0----------0-0-0-----------------|

* * * * * *
L
 
 -----------------------------------------|
 -----------------------------------------|
 -----------------------------------------|
 --^--------0-------^--------777555777888-|
 -870-0-0-0-0------870-0-0-0--------------|
 -----0-0-0-0----------0-0-0--------------|

* * * * * *
R
 
 --------------------------------------------|
 --------------------------------------------|
 --^----------------^------------------------|
 -870-------0------870-------777888101010888-|
 -----0-0-0-0----------0-0-0-----------------|
 -----0-0-0-0----------0-0-0-----------------|

* * * * * *
L
 
 -----------------------------------------|
 -----------------------------------------|
 -----------------------------------------|
 --^--------0-------^-----------P---------|
 -870-0-0-0-0------870-0-0-0-----S--------|
 -----0-0-0-0----------0-0-0------\-------|

* * * * * *
R
 
 ----------------------------------------|
 ----------------------------------------|
 --^----------------^--------------------|
 -870-------0------870----------P--------|
 -----0-0-0-0----------0-0-0-----S-------|
 -----0-0-0-0----------0-0-0------\------|

* * * * * *
1:44
[B]  
 
 --------------------------------------------------------|
 --------------------------------------------------------|
 --------------------------------------------------------|
 --/\---/\-------------------/\---/\---------------------|
 -5858-3737-0-----8---5-----5858-3737-0-----10---8-------|
 -----------0-0-0---0---0-0-----------0-0-0----0---0-0---|

* * * * * * * * * *
L
 
 --------------------------------------------------------------------|
 --------------------------------------------------------------------|
 --------------------------------------------------------------------|
 --/\---/\------------------1010101088887777777788887777-------------|
 -5858-3737-0-----8---5---------------------------------101010108888-|
 -----------0-0-0---0---0-0------------------------------------------|

* * * * *
R
 
 -----------------------------------------------------------------------|
 -----------------------------------------------------------------------|
 -----------------------------_------_------____------------------------|
 --/\---/\-------------------/ \----/ \----/ \-----------------------|
 -5858-3737-0-----8---5-----812812-810810-78787878-10101010888877775555-|
 -----------0-0-0---0---0-0---------------------------------------------|

* * * * *
L
 
 --------------------------------------------------------|
 --------------------------------------------------------|
 --------------------------------------------------------|
 --/\---/\-------------------/\---/\---------------------|
 -5858-3737-0-----8---5-----5858-3737-0-----10---8-------|
 -----------0-0-0---0---0-0-----------0-0-0----0---0-0---|

* * * * * * * * * *
R
 
 --------------------------------------------------------|
 --------------------------------------------------------|
 --------------------------------------------------------|
 --/\---/\--------7----------/\---/\--------8----7-------|
 -5858-3737-0---------8-----5858-3737-0------------------|
 -----------0-0-0---0---0-0-----------0-0-0----0---0-0---|

* * * * * * * * * *
L
 
 -------------------------------------------------------------------------|
 -------------------------------------------------------------------------|
 --------------------------5-3-2---3-2-----7-5-----5-------7-5-----5------|
 -/\---/\------------------------5----5-3------8-7---8-7-5-----8-7---8-7-5|
 5858-3737-0-----8---5----------------------------------------------------|
 ----------0-0-0---0---0-0------------------------------------------------|

* * * * *
R
 
 -------------------------------------------------------------------------|
 -------------------------------------------------------------------------|
 --------------------------5-3-2---3-2-----7-5-----5-------10-9-7--9-7----|
 -/\---/\--------7---------------5----5-3------8-7---8-7-5-------10---10-8|
 5858-3737-0---------8----------------------------------------------------|
 ----------0-0-0---0---0-0------------------------------------------------|

* * * * *
2:02
L
 
 --------------------------------------------------|
 --------------------------------------------------|
 --------------------------------------------------|
 --------------------------------------------------|
 -00000---00000---0000000000000---00000---000-000--|
 -00000---00000---0000000000000---00000---000-000--|

***** ***** ************* ***** *** ***
R
 
 --------------------------------------------------|
 --------------------------------------------------|
 --------------------------------------------------|
 -0------------------------------------------------|
 -0---------------------------------------000-000--|
 -0---------------------------------------000-000--|

*** ***
L
 
 --------------------------------------------------|
 --------------------------------------------------|
 --------------------------------------------------|
 --------------------------------------------------|
 -00000---00000---0000000000000---00000---000-000--|
 -00000---00000---0000000000000---00000---000-000--|

***** ***** ************* ***** *** ***
R
 
 --------------------------------------------------|
 --------------------------------------------------|
 --------------------------------------------------|
 -0------------------------------------------------|
 -0---------------------------------------000-000--|
 -0---------------------------------------000-000--|

*** **
[B]  
 
 --------------------------------------------------|
 --------------------------------------------------|
 --------------------------------------------------|
 --------------------------------------------------|
 -00000---00000---0000000000000---00000---000-000--|
 -00000---00000---0000000000000---00000---000-000--|

***** ***** ************* ***** *** ***
L
 
 --------------------------------------------------|
 ---------------------------------------H-----H----|
 --------------------------------------3.1----4----|
 -----------------------------------------VVV---V--|
 -00000---00000---0000000000000---0000-------------|
 -00000---00000---0000000000000---0000-------------|

***** ***** ************* ****
R
 
 --------------------------------------------------|
 --------------------------------------H-----------|
 --------------------------------------5-----2.75--|
 ----------------------------------------VVV-----V-|
 -00000---00000---0000000000000---0000-------------|
 -00000---00000---0000000000000---0000-------------|

***** ***** ************* ****
[B]  
 
 -------------------------------------------------|
 -------------------------------------------------|
 -------------------------------------------------|
 -------------------------------------------------|
 -00000----00000---------00000----00000-----------|
 -00000----00000---------00000----00000-----------|

***** ***** ***** *****
 
 -------------------------------------------|
 -------------------------------------------|
 --------------------------------------10---|
 --------------------------------------9----|
 -00000----00000---------00000----0000-8-\--|
 -00000----00000---------00000----0000------|

***** ***** ***** ****
 
 -------------------------------------------|
 -------------------------------------------|
 -------------------------------------------|
 -------------------------------------------|
 -00000---00000---0000000000000---00000-----|
 -00000---00000---0000000000000---00000-----|

***** ***** ************* *****

Important: The song above is NOT stored on the Chordie server. The original song is hosted at www.guitartabs.cc. Chordie works as a search engine and provides on-the-fly formatting. Chordie does not index songs against artists'/composers' will. To remove this song please click here.

Text color:
Chord color:
Chord grids: 
Font size:    
Page size: 

B
Rate #1 of 3 versions

Login - add to songbook

SHARE PAGE  



You need to log in to post comments