Guitar Tabs, Chords and Lyrics
Server problems seems to be fixed. Chordie has been experiencing problems with songs disappearing. These issues now seems to be fixed, but still verifying the fix. If you find anything strange, please email admin@chordie.com.


Wild Eyes  Parkway Drive

[B-F#-B-E-G#-C#]  
TABBED BY-andherembrace
LET RING THROUGHOUT
)~~
 
 -19-------19----15-----14------19---19----19---15-----17-----|
 ---17-------17----13-----15------17---------17---13-----15---|
 -----16-------------12-----14----------------------12-----14-|
 -------------------------------------------------------------|
 -------------------------------------------------------------|
 -------------------------------------------------------------|

)~~
 
 -19-------19----15-----14------19---19----19---15-----17-----|
 ---17-------17----13-----15------17---------17---13-----15---|
 -----16-------------12-----14----------------------12-----14-|
 -------------------------------------------------------------|
 -------------------------------------------------------------|
 -------------------------------------------------------------|

0:17
[1] )~~
 
 -19-------19----15-----14------19---19----19---15-----17-----|
 ---17-------17----13-----15------17---------17---13-----15---|
 -----16-------------12-----14----------------------12-----14-|
 -------------------------------------------------------------|
 -------------------------------------------------------------|
 -------------------------------------------------------------|

[2]  
 
 -------------------------------------------------------------|
 -------------------------------------------------------------|
 -------------------------------------------------------------|
 -------------------------------------------------------------|
 -2---------------------------2-------------------------------|
 -2--------------7-7-7-9-9-9--2------------5-5-5-4-5-4--------|

[1] )~~
 
 -19-------19----15-----14------19---19----19--------|
 ---17-------17----13-----15------17---------17------|
 -----16-------------12-----14-----------------------|
 ----------------------------------------------------|
 ----------------------------------------------------|
 ----------------------------------------------------|

[2]  
 
 --------------------------------------------------------|
 --------------------------------------------------------|
 --------------------------------------------------------|
 --------------------------------------------------------|
 -2---------------------------2--------------------------|
 -2--------------7-7-7-9-9-9--2------------5-5-5-4~-2-0--|

0:34
[1]  
 
 -19------19-----19-----19------15------15------14------14------|
 ---17------17-----17-----17------13--13--13--13--15--15--15----|
 -----16------16-----16-----16------12------12------14------14--|
 ---------------------------------------------------------------|
 ---------------------------------------------------------------|
 ---------------------------------------------------------------|

[2]  
 
 ---------------------------------------------------------------|
 ---------------------------------------------------------------|
 --------9-------------9----------------------------------------|
 --------X-------------X----------------------------------------|
 --------7\------------7\---------------------------------------|
 -222222--------222222------------------------------------------|

****** ******
[1]  
 
 -19------19-----19-----19------15------15------14------14------|
 ---17------17-----17-----17------13--13--13--13--15--15--15----|
 -----16------16-----16-----16------12------12------14------14--|
 ---------------------------------------------------------------|
 ---------------------------------------------------------------|
 ---------------------------------------------------------------|

[2]  
 
 --------------------------------------------------------|
 --------------------------------------------------------|
 --------9-------------9---------------------------------|
 --------X-------------X---------------------------------|
 --------7\------------7\-------2222--2222--5555--4444---|
 -222222--------222222----------2222--2222--5555--4444---|

****** ****** **** **** **** ****
[1]  
 
 -19------19-----19-----19------15------15------14------14------|
 ---17------17-----17-----17------13--13--13--13--15--15--15----|
 -----16------16-----16-----16------12------12------14------14--|
 ---------------------------------------------------------------|
 ---------------------------------------------------------------|
 ---------------------------------------------------------------|

[2]  
 
 ---------------------------------------------------------------|
 ---------------------------------------------------------------|
 --------9-------------9----------------------------------------|
 --------X-------------X----------------------------------------|
 --------7\------------7\---------------------------------------|
 -222222--------222222------------------------------------------|

****** ******
[1]  
 
 -19------19-----19-----19--------19--------------------|
 ---17------17-----17-----17---------17------20-19~-----|
 -----16------16-----16-----16----------16--------------|
 -------------------------------------------------------|
 -------------------------------------------------------|
 -------------------------------------------------------|

[2]  
 
 ---------------------------------------------------|
 ---------------------------------------------------|
 --------9-------------9----------------------------|
 --------X-------------X----------------------------|
 --------7\------------7\---------------------------|
 -222222--------222222-------0-0-0-17~--0-0-0-16~---|

****** ****** * * * * * *
0:51
[B]  
 
 -------------------------------------------------------------|
 -------------------------------------------------------------|
 --------9-------------9--------------------------------------|
 --------X-------------X--------------------------------------|
 --------7\------------7\-----------55557777--------99995555--|
 -222222--------222222------55555555--------77777777----------|

****** ******
 
 ------------------------------------------------------------------------|
 ------------------------------------------------------------------------|
 --------9-------------9------------------------------------------__-----|
 --------X-------------X-----------------------------------------/ \----|
 --------7\------------7\---------14----12----10----12----10----9-10-9-7-|
 -222222--------222222-----101010----10----10----10----10----10----------|

****** ****** * * * * * *
 
 -------------------------------------------------------------|
 -------------------------------------------------------------|
 --------9-------------9--------------------------------------|
 --------X-------------X--------------------------------------|
 --------7\------------7\-----------55557777--------99995555--|
 -222222--------222222------55555555--------77777777----------|

****** ******
 
 -------------------------------------------------------------------|
 -------------------------------------------------------------------|
 --------9-------------9--------------------------------------------|
 --------X-------------X--------------------------------------------|
 --------7\------------7\---------------10-10-14-14---------5-5-9-9-|
 -222222--------222222------10-10-10-10-------------5-5-5-5---------|

****** ****** * * * * * * * * * * * * * * * *
1:09
 
 ----------------------------------------------------------------------|
 ----------------------------------------------------------------------|
 ----------------------------------------------------------------------|
 ----------------------------------------------------------------------|
 -00222----00222--------------------------00222----00222---------------|
 -00222----00222----0-0-0-17~--0-0-0-16~--00222----00222--5-5-5-4~-2-0-|

[1]  
 
 -19------19-----19-----19------15------15------14------14------|
 ---17------17-----17-----17------13--13--13--13--15--15--15----|
 -----16------16-----16-----16------12------12------14------14--|
 ---------------------------------------------------------------|
 ---------------------------------------------------------------|
 ---------------------------------------------------------------|

[2]  
 
 ---------------------------------------------------------------|
 ---------------------------------------------------------------|
 --------9-------------9----------------------------------------|
 --------X-------------X----------------------------------------|
 --------7\------------7\---------------------------------------|
 -222222--------222222------------------------------------------|

****** ******
[1]  
 
 -19------19-----19-----19------15------15------14------14------|
 ---17------17-----17-----17------13--13--13--13--15--15--15----|
 -----16------16-----16-----16------12------12------14------14--|
 ---------------------------------------------------------------|
 ---------------------------------------------------------------|
 ---------------------------------------------------------------|

[2]  
 
 --------------------------------------------------------|
 --------------------------------------------------------|
 --------9-------------9---------------------------------|
 --------X-------------X---------------------------------|
 --------7\------------7\-------2222--2222--5555--4444---|
 -222222--------222222----------2222--2222--5555--4444---|

****** ******
[1]  
 
 -19------19-----19-----19------15------15------14------14------|
 ---17------17-----17-----17------13--13--13--13--15--15--15----|
 -----16------16-----16-----16------12------12------14------14--|
 ---------------------------------------------------------------|
 ---------------------------------------------------------------|
 ---------------------------------------------------------------|

[2]  
 
 ---------------------------------------------------------------|
 ---------------------------------------------------------------|
 --------9-------------9----------------------------------------|
 --------X-------------X----------------------------------------|
 --------7\------------7\---------------------------------------|
 -222222--------222222------------------------------------------|

****** ******
[1] ___________
 
 -19------19-----19-----19--------19----------------)---|
 ---17------17-----17-----17---------17------20-19~-----|
 -----16------16-----16-----16----------16--------------|
 -------------------------------------------------------|
 -------------------------------------------------------|
 -------------------------------------------------------|

[2]  
 
 -----------------------------------------------------------------|
 -----------------------------------------------------------------|
 --------9-------------9------------------------------------------|
 --------X-------------X------------------------------------------|
 --------7\------------7\-----------------------------------------|
 -222222--------222222-------0-0-0-17~--0-0-0-16~-----17-16-14-12-|

****** ****** * * * * * *
1:38
[1]  
 
 -----------------------------------------------------|
 -----------------------------------------------------|
 -----------------------------------------------------|
 -----------------------------------------------------|
 -----------------------------------------------------|
 --12-14-14-14\10-10-12~-------12/14-14-14\12-10~-----|

[2]  
 
 ---------------------------------------------------------------|
 ---------------------------------------------------------------|
 ---------------------------------------------------------------|
 ---------------------------------------------------------------|
 -2-------------------------------------------------------------|
 -2-------------------------------------------------------------|

[1]  
 
 --------------------------------7---------------------------------------|
 ---------------------------------8-----------------------/\-------/\----|
 -------------------------------------------------------111211---111211--|
 -------------------------------------------------------------12-------12|
 ---------------------------7--------9-10-------10-----------------------|
 12-14-14-14\10-10-12~------7--------9-10--1010-10-1010------------------|

2 * * * *
 
 ---------------------------^--|
 ---------------------------|--|
 ------------------------------|
 ------------------------------|
 -2----------------------------|
 -2----------------------------|

[B]  
 
 ------------------------------___----------___--------___-------------|
 ------------------------------) (----------) (--------) (-------------|
 -----------------------9-11-11-----------11---------11-----12----11~--|
 ----------------------------------12-----12---------12--------12------|
 -------------------------------------10-------------------------------|
 -12-14-14-14\10-10-12~---------------10---------12--------------------|

*
 
 ----------------------------__--------7------------------------------------|
 ----------------------------) (--------8---------------------/\------/\----|
 ---------------------9-11-11-------------------------------111211--111211--|
 -------------------------------12--------------------------------12------12|
 ----------------------------------7------9-10-------10---------------------|
 12-14-14-14\10-10-12~-------------7------9-10--1010-10-1010----------------|

* * * *
L
 
 ------------------------------__-----------___--------___-------------|
 ------------------------------) (----------) (--------) (-------------|
 -----------------------9-11-11-----------11---------11-----12----11~--|
 ----------------------------------12-----12---------12--------12------|
 -------------------------------------10-------------------------------|
 -12-14-14-14\10-10-12~---------------10---------12--------------------|

*
R SAME AS LEFT EXCEPT WHERE NOTED
 
 ----------------------------------------------------------------------|
 ---------------------------------) (----------------------------------|
 -------------------------12-14-14-------------------------16----14~---|
 -------------------------------------16----------------------14-------|
 ----------------------------------------------------------------------|
 ----------------------------------------------------------------------|

L
 
 ---------------------------------------------------------------------|
 -------------------------------)-(-----------------------------------|
 ------------------------9-11-11--------------------------------------|
 -----------------------------------12--------------------------------|
 ----------------------------------------7--7-7-7-7-9-5--5-5-5-5-5-9--|
 -12-14-14-14\10-10-12~------------------7--7-7-7-7-9-5--5-5-5-5-5-9--|

R * * * * * * * * *
 
 ---------------------------------------------------------------|
 ---------------------------------) (---------------------------|
 -------------------------12-14-14------------------------------|
 -------------------------------------16------------------------|
 ---------------------------------------------------------------|
 ---------------------------------------------------------------|

2:23
[B]  
 
 -------------------------------------------------------------|
 -------------------------------------------------------------|
 --------9-------------9--------------------------------------|
 --------X-------------X--------------------------------------|
 --------7\------------7\-----------55557777--------99995555--|
 -222222--------222222------55555555--------77777777----------|

****** ******
 
 ------------------------------------------------------------------------|
 ------------------------------------------------------------------------|
 --------9-------------9------------------------------------------__-----|
 --------X-------------X-----------------------------------------/ \----|
 --------7\------------7\---------14----12----10----12----10----9-10-9-7-|
 -222222--------222222-----101010----10----10----10----10----10----------|

****** ****** * * * * * *
 
 -------------------------------------------------------------|
 -------------------------------------------------------------|
 --------9-------------9--------------------------------------|
 --------X-------------X--------------------------------------|
 --------7\------------7\-----------55557777--------99995555--|
 -222222--------222222------55555555--------77777777----------|

****** ******
 
 -------------------------------------------------------------------|
 -------------------------------------------------------------------|
 --------9-------------9--------------------------------------------|
 --------X-------------X--------------------------------------------|
 --------7\------------7\---------------10-10-14-14---------5-5-9-9-|
 -222222--------222222------10-10-10-10-------------5-5-5-5---------|

****** ****** * * * * * * * * * * * * * * * *
 
 ----------------------------------------------------------------------|
 ----------------------------------------------------------------------|
 ----------------------------------------------------------------------|
 ----------------------------------------------------------------------|
 -00222----00222--------------------------00222----00222---------------|
 -00222----00222----0-0-0-17~--0-0-0-16~--00222----00222--5-5-5-4~-2-0-|
 ---------------------------------------------------------------|
 ---------------------------------------------------------------|
 ---------------------------------------------------------------|
 -2-------------------------------------------------------------|
 -2-------------------------------------------------------------|
 -2-------------------------------------------------------------|

2:58
[1] )~~
 
 -19-------19----15-----14------19---19----19---15-----17-----|
 ---17-------17----13-----15------17---------17---13-----15---|
 -----16-------------12-----14----------------------12-----14-|
 -------------------------------------------------------------|
 -------------------------------------------------------------|
 -------------------------------------------------------------|

[2]  
 
 -------------------------------------------------------------|
 -------------------------------------------------------------|
 -------------------------------------------------------------|
 -------------------------------------------------------------|
 -2---------------------------2-------------------------------|
 -2--------------7-7-7-9-9-9--2------------5-5-5-4-5-4--------|

[1] )~~
 
 -19-------19----15-----14------19---19----19--------|
 ---17-------17----13-----15------17---------17------|
 -----16-------------12-----14-----------------------|
 ----------------------------------------------------|
 ----------------------------------------------------|
 ----------------------------------------------------|

[2]  
 
 -------------------------------------------|
 -------------------------------------------|
 -------------------------------------------|
 -------------------------------------------|
 -2---------------------------2-------------|
 -2--------------7-7-7-9-9-9--2-------------|

3:15
 
 ---------------------------------------------------------------|
 ---------------------------------------------------------------|
 ---------------------------------------------------------------|
 ---------------------------------------------------------------|
 -2--2--00222002--0-2-0-5-4-2-0---2--2--00222002--3-3-3-5-5-5---|
 -2--2--00222002--0-2-0-5-4-2-0---2--2--00222002--5-5-5-7-7-7---|

* * ******* * * * * * * * * * ******** * * * * * *
 
 ---------------------------------------------------------------|
 ---------------------------------------------------------------|
 ---------------------------------------------------------------|
 ---------------------------------------------------------------|
 -2--2--00222002--0-2-0-5-4-2-0---2--2--00222002--3-3-3-5-5-5---|
 -2--2--00222002--0-2-0-5-4-2-0---2--2--00222002--5-5-5-7-7-7---|

* * ******* * * * * * * * * * ******** * * * * * *
3:32
[1] )~~
 
 -19-------19----15-----14------19---19----19---15-----17-----|
 ---17-------17----13-----15------17---------17---13-----15---|
 -----16-------------12-----14----------------------12-----14-|
 -------------------------------------------------------------|
 -------------------------------------------------------------|
 -------------------------------------------------------------|

[2]  
 
 ----------------------------------------------------------------|
 ----------------------------------------------------------------|
 --------9-------------9-------------9----------9----------------|
 --------X-------------X-------------X----------X----------------|
 --------7\------------7\------------7\---------7\--3-3-3-5-5-5--|
 -222222--------222222--------222222-----222222-----5-5-5-7-7-7--|

****** ****** - ****** ******
[1] )~~
 
 -19-------19----15-----14------19---19----19---15-----17-----|
 ---17-------17----13-----15------17---------17---13-----15---|
 -----16-------------12-----14----------------------12-----14-|
 -------------------------------------------------------------|
 -------------------------------------------------------------|
 -------------------------------------------------------------|

[2]  
 
 ----------------------------------------------------------------|
 ----------------------------------------------------------------|
 --------9-------------9-------------9----------9----------------|
 --------X-------------X-------------X----------X----------------|
 --------7\------------7\------------7\---------7\--3-3-3-5-5-5--|
 -222222--------222222--------222222-----222222-----5-5-5-7-7-7--|

****** ****** - ****** ******
[1] )~~
 
 -19-------19----15-----14------19---19----19---15-----17-----|
 ---17-------17----13-----15------17---------17---13-----15---|
 -----16-------------12-----14----------------------12-----14-|
 -------------------------------------------------------------|
 -------------------------------------------------------------|
 -------------------------------------------------------------|

[2]  
 
 -------------------------------------------------------------|
 -------------------------------------------------------------|
 --------------------------------------------------9-----7----|
 --------------------------------------------------X-----X----|
 -2-----------------------------2------------------7-----5~~--|
 -2-----------------------------2-----------------------------|

[1] )~~
 
 -19-------19----15-----14------19---19----19---15-----17-----|
 ---17-------17----13-----15------17---------17---13-----15---|
 -----16-------------12-----14----------------------12-----14-|
 -------------------------------------------------------------|
 -------------------------------------------------------------|
 -------------------------------------------------------------|

[2]  
 
 ------------------------------------------------------------|
 ------------------------------------------------------------|
 ------------------------------------------------------------|
 ----------------5---7---------------------------------------|
 -2--------------3---5-----------2--------3-3-3-5-5-5-7------|
 -2------------------------------2--------5-5-5-7-7-7-9------|

* * * * * *

Important: The song above is NOT stored on the Chordie server. The original song is hosted at www.guitartabs.cc. Chordie works as a search engine and provides on-the-fly formatting. Chordie does not index songs against artists'/composers' will. To remove this song please click here.

Text color:
Chord color:
Chord grids: 
Font size:    
Page size: 

B
Rate #1 of 2 versions

Jango Player

Login - add to songbook

SHARE PAGE  




You need to log in to post comments