Guitar Tabs, Chords and Lyrics
Server problems seems to be fixed. Chordie has been experiencing problems with songs disappearing. These issues now seems to be fixed, but still verifying the fix. If you find anything strange, please email admin@chordie.com.


Get It  Paul McCartney

 
 ------------------------------------------------------------

PAUL McCARTNEY - GET IT (P McCartney) From TUG OF WAR album.
Released on April 26th 1982. Featuring Carl
Perkins on guitar and vocals.
 
 ------------------------------------------------------------

Tabbed by:PJVillanueva
You've got to get it mmmm
You've got to get it don't forget
It doesn't come around again
You've got to get it mm mm
You've got to get it and you`ve got to get it good
Once I had a little Spanish guitar
The neighbours told me I could go pretty far
Well I came and I went
And my guitar got bent
But I discovered that the people who love
Are what we need if we`re to get up above it all
And that's that
Unless the world is flat
I wanna get it mmmm
I wanna get it just in case
It doesn't come around again
I wanna get it mm mm
I wanna get it and I wanna get it good
SOLO
Pardon me if I've been misunderstood
I wanna get it while the going is good
The telephone rang
About a song I sang
The life of Cadillac and ultra for sure
It's automatic for the Lady demure
She came and she went
Without a single dent
You've got to get it mmmm
You've got to get it don't forget
It doesn't come around again
You've got to get it mmmm
You've got to get it and you`ve got to get it good
Come on let's get it mmmm
You've got to get it don't forget
It doesn't come around again
You've got to get it mm mm
You've got to get it and you've got to get it good
Come on...
12/8 time
[B9]  
 
 e|------- 2------ ------- 2------|------- 2------ ------- 2------|
 B|2-------2---------------2------|2-------2-----x---------2------|
 G|2-------2---------------2------|2-------2-----x---------2------|
 D|1-------1-------1-------1------|1-------1-----x-1-------1------|
 A|2-------2-------x-------2------|2-------2-------x-------2------|
 E|----------------2--------------|----------------2--------------|
 e|------- ------- ------- -------|------- ------- ------- -------|
 B|-------------------------------|-------------------------------|
 G|-------------------------------|-------------------------------|
 D|--------1---------------1------|--------1---------------1------|
 A|2------------------------------|2-----2---------------2-------2|
 E|----------------2-----2--------|----------------2--------------|

[E6]  
 
 e|0------ 0------ 0------ 0------|0------ 0------ 0-----0 0------|
 B|2-------2-------2-------2------|2-------2-------2-----2-2-----x|
 G|1-------1-------1-------1------|1-------1-------1-----1-1-----x|
 D|2-------2-------2-------2------|2-------2-------2-----2-2-----x|
 A|2-------2-------2-------2------|2-------2-------2-----2-2------|
 E|0-------0-------0-------0------|0-------0-------0-----0-0------|
 e|------- ------- ------- -------|------- ------- ------- -------|
 B|-------------------------------|-------------------------------|
 G|-------------------------------|-------------------------------|
 D|--------2---------------2-----2|--------2---------------2------|
 A|--------------2-2-----2--------|--------------2-2-----2--------|
 E|0------------------------------|0------------------------------|

[B9]  
 
 e|------- 2------ ------- 2------|------- 2------ ------- 2------|
 B|2-------2-------2-------2------|2-------2-------2-------2------|
 G|2-------2-------2-------2------|2-------2-------2-------2------|
 D|1-------1-------1-------1------|1-------1-------1-------1------|
 A|2-------2-------2-------2------|2-------2-------2-------2------|
 E|-------------------------------|-------------------------------|
 e|------- ------- ------- -------|------- ------- ------- -------|
 B|-------------------------------|-------------------------------|
 G|-------------------------------|-------------------------------|
 D|--------1---------------1------|--------1---------------1------|
 A|2-----2------------------------|2-----2------------------------|
 E|----------------2-----2--------|--------------x-2-----2--------|

[E6] [E]  
 
 e|0------ 0----0- 0------ 0------|0------ ------- ------- -------|
 B|2-------2----2--2-------2------|0------------------------------|
 G|1-------1----1--1-------1------|1------------------------------|
 D|2-------2----2--2-------2------|2------------------------------|
 A|2-------2----2--2-------2------|2---------------0-------1------|
 E|0-------0----0--0-------0------|0-----/-4----------------------|
 e|------- ------- ------- -------|------- ------- ------- -------|
 B|-------------------------------|-------------------------------|
 G|-------------------------------|-------------------------------|
 D|--------2-----2---------2-----2|2------------------------------|
 A|----------------2-----2--------|----------------0-----0-1------|
 E|0-----0------------------------|--------4----------------------|

you've
got to
00:12
 
 e|2------ 2-----2 2------ 2------|2------ 2------ ------- 2------|
 B|2-------2-----2-2-------2------|2-------2-------x-------2------|
 G|2-------2-----2-2-------2------|2-------2-------x-------2------|
 D|1-------1-----1-1-------1------|1-------1-------x-------1------|
 A|2-------2-----2-2-------2------|2-------2---------------2------|
 E|-------------------------------|-------------------------------|
 e|------- ------- ------- -------|------- ------- ------- -------|
 B|-------------------------------|-------------------------------|
 G|-------------------------------|-------------------------------|
 D|--------1---------------1------|--------1---------------1------|
 A|2-----2------------------------|2-----2---------------2--------|
 E|----------------2-----2--------|--------------4-2--------------|

get it Mmmmmmmmmmm you've
got to
 
 e|2------ ------- 2------ -------|0------ 0------ ------- 0------|
 B|2-------x-------2-------x------|2-------2-------x-------2------|
 G|2-------x-------2-------x------|1-------1-------x-------1------|
 D|1-------x-------1-------x------|2-------2-------x-------2------|
 A|2---------------2--------------|2-------2---------------2------|
 E|-------------------------------|0-------0---------------0------|
 e|------- ------- ------- -------|------- ------- ------- -------|
 B|-------------------------------|-------------------------------|
 G|-------------------------------|-------------------------------|
 D|-------------------------------|--------2-----2---------2------|
 A|2-------4-----4-2-----2-4------|----------------2-----2--------|
 E|------------------------------4|0-----0------------------------|

get it forget It come around again you've to
don't doesn`t got
00:18
 
 e|2------ 2-----2 2------ 2------|2------ 2------ ------- 2------|
 B|2-------2-----2-2-------2------|2-------2-------x-------2------|
 G|2-------2-----2-2-------2------|2-------2-------x-------2------|
 D|1-------1-----1-1-------1------|1-------1-------x-------1------|
 A|2-------2-----2-2-------2------|2-------2---------------2------|
 E|-------------------------------|-------------------------------|
 e|------- ------- ------- -------|------- ------- ------- -------|
 B|-------------------------------|-------------------------------|
 G|-------------------------------|-------------------------------|
 D|--------1-----1---------1-----1|--------1---------------1------|
 A|2------------------------------|2---------------------2--------|
 E|----------------2-----2--------|--------------4-2--------------|

get it Mmmmmmmmmmm you've
got to
(.
 
 e|2------ 2------ ------- 2------|0------ ------- 0------ -------|
 B|2-------2---------------2------|2---------------2--------------|
 G|2-------2---------------2------|1---------------1--------------|
 D|1-------1---------------1------|2---------------2--------------|
 A|2-------2---------------2------|2---------------2--------------|
 E|-------------------------------|0---------------0--------------|
 e|------- ------- ------- -------|------- ------- ------- -------|
 B|-------------------------------|-------------------------------|
 G|-------------------------------|-------------------------------|
 D|--------1-----1----------------|-------------------------------|
 A|2-----------------------4-----x|-------------------------------|
 E|-----------------2-------------|0------------------------------|

get it you to it
and got get good
00:24
[A] [B9]  
 
 e|0------ ------- ------- 0------|------- 2------ ------- -------|
 B|2-----------------------2------|2-------2-------2-------2-----x|
 G|2-----------------------2------|2-------2-------2-------2-----x|
 D|2-----------------------2------|1-------1-------1-------1-----x|
 A|0-----------------------0------|2-------2-------2-------2------|
 E|-------------------------------|-------------------------------|
 e|------- ------- ------- -------|------- ------- ------- -------|
 B|-------------------------------|-------------------------------|
 G|-------------------------------|-------------------------------|
 D|-------------------------------|-------------------------------|
 A|0-----------------------0------|2-------2----------------------|
 E|----------------0--------------|----------------2-------1------|

Once I had a little Spanish guitar
[E6] [F#m]  
 
 e|0------ 0------ 0------ 0------|2------ 2------ 2------ 2------|
 B|2-------2-------2-------2------|2-------2-------2-------2------|
 G|1-------1-------1-------1------|2-------2-------2-------2------|
 D|2-------2-------2-------2------|4-------4-------4-------4------|
 A|2-------2-------2-------2------|4-------4-------4-------4------|
 E|0-------0-------0-------0------|2-------2-------2-------2------|
 e|------- ------- ------- -------|------- ------- ------- -------|
 B|-------------------------------|-------------------------------|
 G|-------------------------------|-------------------------------|
 D|-------------------------------|------------------------4------|
 A|----------------2--------------|----------------4--------------|
 E|0-----------------------0------|2------------------------------|

The told me could pretty far
neighbours I go
[D] [A]  
 
 e|2------ 2------ 2------ 2------|0------ 0-----0 0------ 0------|
 B|3-------3-------3-------3------|2-------2-----2-2-------2------|
 G|2-------2-------2-------2------|2-------2-----2-2-------2------|
 D|0-------0-------0-------0------|2-------2-----2-2-------2------|
 A|-------------------------------|0-------0-----0-0-------0------|
 E|-------------------------------|-------------------------------|
 e|------- ------- ------- -------|------- ------- ------- -------|
 B|-------------------------------|-------------------------------|
 G|-------------------------------|-------------------------------|
 D|0-------------0-0-------0------|2-------2-----2---------2-----2|
 A|-------------------------------|----------------0--------------|
 E|-------------------------------|-------------------------------|

Well I came and went
I
(.
[B9] [E] [E6]  
 
 e|------- 2------ ------- -------|0------ ------- 0------ -------|
 B|2-------2-------2--------------|0---------------2--------------|
 G|2-------2-------2--------------|1---------------1--------------|
 D|1-------1-------1--------------|2---------------2--------------|
 A|2-------2-------2--------------|2---------------2--------------|
 E|-------------------------------|0---------------0--------------|
 e|------- ------- ------- -------|------- ------- ------- -------|
 B|-------------------------------|-------------------------------|
 G|-------------------------------|-------------------------------|
 D|--------1-----1---------1-----1|2------------------------------|
 A|2------------------------------|-------------------------------|
 E|----------------2--------------|-------------------------------|

And guitar got bent
my
 
 e|------- ------- ------- -------|
 B|-------------------------------|
 G|-------------------------------|
 D|-------------------------------|
 A|-------------------------------|
 E|0-------0-------2-------4------|
 e|------- ------- ------- -------|
 B|-------------------------------|
 G|-------------------------------|
 D|----------------4---B---7------|
 A|-------------------------------|
 E|-------------------------------|

00:38
 
 e|0------ 0------ 0------ 0------|------- 2------ ------- -------|
 B|2-------2-------2-------2------|2-------2-------2-------2------|
 G|2-------2-------2-------2------|2-------2-------2-------2------|
 D|2-------2-------2-------2------|1-------1-------1-------1------|
 A|0-------0-------0-------0------|2-------2-------2-------2------|
 E|-------------------------------|-------------------------------|
 e|------- ------- ------- -------|------- ------- ------- -------|
 B|-------------------------------|-------------------------------|
 G|-------------------------------|-------------------------------|
 D|-------------------------------|-------------------------------|
 A|0-----------------------0------|2-------2-----2---------2------|
 E|----------------0--------------|----------------2--------------|

But discovered the who love
I that people
 
 e|0------ 0------ 0------ 0------|2------ 2------ 2------ 2------|
 B|2-------2-------2-------2------|2-------2-------2-------2------|
 G|1-------1-------1-------1------|2-------2-------2-------2------|
 D|2-------2-------2-------2------|4-------4-------4-------4------|
 A|2-------2-------2-------2------|4-------4-------4-------4------|
 E|0-------0-------0-------0------|2-------2-------2-------2------|
 e|------- ------- ------- -------|------- ------- ------- -------|
 B|-------------------------------|-------------------------------|
 G|-------------------------------|-------------------------------|
 D|-------------------------------|------------------------4------|
 A|----------------2--------------|--------4----------------------|
 E|0------------------------------|2------------------------------|

Are we if to up it all
what need we`re get above
 
 e|2------ 2------ 2------ 2------|0------ 0-----0 0------ 0------|
 B|3-------3-------3-------3------|2-------2-----2-2-------2------|
 G|2-------2-------2-------2------|2-------2-----2-2-------2------|
 D|0-------0-------0-------0------|2-------2-----2-2-------2------|
 A|-------------------------------|0-------0-----0-0-------0------|
 E|-------------------------------|-------------------------------|
 e|------- ------- ------- -------|------- ------- ------- -------|
 B|-------------------------------|-------------------------------|
 G|--------------2----------------|-------------------------------|
 D|0-------0-------------0-0------|2-------2---------------2------|
 A|----------------0--------------|----------------0--------------|
 E|-------------------------------|-------------------------------|

And that
that's
(.
 
 e|2------ 2------ 2------ 2------|0------ ------- 0------ -------|
 B|2-------2-------2-------2------|0---------------2--------------|
 G|2-------2-------2-------2------|1---------------1--------------|
 D|1-------1-------1-------1------|2---------------2--------------|
 A|2-------2-------2-------2------|2---------------2--------------|
 E|-------------------------------|0---------------0--------------|

( Tab from: http://www.guitartabs.cc/tabs/p/paul_mccartney/get_it_tab.html )
 
 e|------- ------- ------- -------|------- ------- ------- -------|
 B|-------------------------------|-------------------------------|
 G|-------------------------------|-------------------------------|
 D|--------1----------------------|-------------------------------|
 A|2------------------------------|-------------------------------|
 E|----------------2-------1------|0------------------------------|

unless the is flat
world
 
 e|------- ------- ------- -------|
 B|3------------------------------|
 G|-------------------------------|
 D|-------------------------------|
 A|----------------0-------1------|
 E|--------4----------------------|
 e|------- ------- ------- -------|
 B|-------------------------------|
 G|-------------------------------|
 D|-------------------------------|
 A|----------------0-----0-1------|
 E|--------4-----4----------------|

I wanna
00:51
get it mmmm
I wanna get it just in case
It doesn't come around again
I wanna get it mm mm
I wanna ....
 
 e|------- ------- ------- -------|------- ------- ------- -------|
 B|-------------------------------|-------------------------------|
 G|-------------------------------|-------------------------------|
 D|-------------------------------|-------------------------------|
 A|-------------------------------|------/-5-------4-------3------|
 E|-------------------------------|0------------------------------|

get it I wanna get it
and good
SOLO
01:03
 
 e|------- 7------ ------- -------|7------ ------7 ------- ------7|
 B|--------7-------------7H9------|------7H9-----7-------9--------|
 G|-------------------------------|-------------------------------|
 D|-------------------------------|-------------------------------|
 A|-------------------------------|-------------------------------|
 E|-------------------------------|-------------------------------|
 e|------- 7------ ------- -------|7------ ------- ------- -------|
 B|--------7-------------7H9------|--------9-----7-------9--------|
 G|-------------------------------|-------------------------------|
 D|-------------------------------|-------------------------------|
 A|-------------------------------|-------------------------------|
 E|-------------------------------|-------------------------------|

Doo doo doo doo doo doo
[----] doo
 
 e|------- 7------ ------- ------0|0------ 0------ ------- -------|
 B|0-------7-------------7H9------|-------------------------------|
 G|-------------------------------|2--/--4-------4\2-----0--------|
 D|-------------------------------|------------------------2------|
 A|-------------------------------|-------------------------------|
 E|-------------------------------|-------------------------------|
 e|------- 7------ 7------ -------|------- 0------ ------- -------|
 B|--------7-------------7--------|------0------------------------|
 G|-------------------------------|3-------------4\2-----0--------|
 D|-------------------------------|------------------------2------|
 A|-------------------------------|-------------------------------|
 E|-------------------------------|-------------------------------|

doo doo doo doo doo doo doo doo
01:09
 
 e|------- 7------ ------- -------|7------ ------7 ------- -------|
 B|--------7-------------7H9------|------7H9-------------9-------7|
 G|-------------------------------|-------------------------------|
 D|-------------------------------|-------------------------------|
 A|-------------------------------|-------------------------------|
 E|-------------------------------|-------------------------------|
 e|------- 7------ ------- -------|7------ ------7 ------- -------|
 B|--------7-------------7H9------|------7---------------9-------x|
 G|-------------------------------|-------------------------------|
 D|-------------------------------|-------------------------------|
 A|-------------------------------|-------------------------------|
 E|-------------------------------|-------------------------------|

Doo doo doo doo doo doo
[----] doo
(.
 
 e|10----- 9------ 7------ -------|0------ ------- 0------ -------|
 B|----------------------8\7------|----------------2--------------|
 G|-------------------------------|----------------1--------------|
 D|-------------------------------|----------------2--------------|
 A|-------------------------------|----------------2--------------|
 E|-------------------------------|----------------0--------------|
 e|10----- 9------ 7------ -------|0------ ------- ------- -------|
 B|----------------------8\7------|0------------------------------|
 G|-------------------------------|1------------------------------|
 D|-------------------------------|-------------------------------|
 A|-------------------------------|-------------------------------|
 E|-------------------------------|-------------------------------|

doo doo doo doo doo
01:15
 
 e|------- 0------ 0------ 0------|------- 2------ ------2 2------|
 B|--------2-------2-------2------|2-------2-------2-----2-2------|
 G|--------2-------2-------2------|2-------2-------2-----2-2------|
 D|--------2-------2-------2------|1-------1-------1-----1-1------|
 A|0-------0-------0-------0------|2-------2-------2-----2-2------|
 E|-------------------------------|-------------------------------|
 e|------- ------- ------- -------|------- ------- ------- -------|
 B|-------------------------------|-------------------------------|
 G|-------------------------------|-------------------------------|
 D|--------2---------------2------|--------1-----1---------1-----1|
 A|0------------------------------|2------------------------------|
 E|----------------0--------------|----------------2--------------|

Pardon me if been
I've misunderstood
 
 e|0------ 0------ 0------ 0------|2------ 2------ 2-----2 2------|
 B|2-------2-------2-------2------|2-------2-------2-----2-2------|
 G|1-------1-------1-------1------|2-------2-------2-----2-2------|
 D|2-------2-------2-------2------|4-------4-------4-----4-4------|
 A|2-------2-------2-------2------|4-------4-------4-----4-4------|
 E|0-------0-------0-------0------|2-------2-------2-----2-2------|
 e|------- ------- ------- -------|------- ------- ------- -------|
 B|-------------------------------|-------------------------------|
 G|-------------------------------|-------------------------------|
 D|--------2---------------2------|------------------------4------|
 A|----------------2--------------|--------4-------------4--------|
 E|0------------------------------|2------------------------------|

I wanna get it the is good
while going
 
 e|2------ 2-----2 2------ 2------|0------ 0------ ------- 0------|
 B|3-------3-----3-3-------3------|2-------2---------------2------|
 G|2-------2-----2-2-------2------|2-------2---------------2------|
 D|0-------0-----0-0-------0------|2-------2---------------2------|
 A|-------------------------------|0-------0---------------0------|
 E|-------------------------------|-------------------------------|
 e|------- ------- ------- -------|------- ------- ------- -------|
 B|-------------------------------|-------------------------------|
 G|--------2---------------2------|-------------------------------|
 D|0---------------0--------------|--------2-----2---------2------|
 A|-------------------------------|0---------------0--------------|
 E|-------------------------------|-------------------------------|

The telephone rang
 
 e|2------ 2------ 2------ 2------|------- ------- 0------ -------|
 B|2-------2-------2-------2------|----------------2--------------|
 G|2-------2-------2-------2------|----------------1--------------|
 D|1-------1-------1-------1------|----------------2--------------|
 A|2-------2-------2-------2------|----------------2--------------|
 E|-------------------------------|----------------0--------------|
 e|------- ------- ------- -------|------- ------- ------- -------|
 B|-------------------------------|-------------------------------|
 G|-------------------------------|-------------------------------|
 D|--------1-----x---------1-----1|-------------------------------|
 A|2------------------------------|-------------------------------|
 E|----------------2--------------|0------------------------------|

About a song I sang
(.
 
 e|0------ ------- ------- -------|
 B|2------------------------------|
 G|1------------------------------|
 D|2------------------------------|
 A|2------------------------------|
 E|0-------0-------2-------4------|
 e|------- ------- ------- -------|
 B|-------------------------------|
 G|-------------------------------|
 D|-------------------------------|
 A|-------------------------------|
 E|--------0-------2-------4------|

I wanna
01:29
The life of Cadillac and ultra for sure
It's automatic for the Lady demure
She came and she went
Without a single dent
01:43
You've got to get it mmmm
You've got to get it don't forget
It doesn't come around again
You've got to get it mmmm
You've got to ....
 
 e|------- ------- ------- -------|------- ------- ------- -------|
 B|-------------------------------|-------------------------------|
 G|-------------------------------|-------------------------------|
 D|-------------------------------|-------------------------------|
 A|-------------------------------|--/-5-----------4-------3------|
 E|-------------------------------|-------------------------------|

get it you to it
and got get good
SOLO
01:54
 
 e|------- 7------ ------- -------|7------ ------7 ------- ------7|
 B|--------7-------------7H9------|7-----7H9-----7-------9--------|
 G|-------------------------------|-------------------------------|
 D|-------------------------------|-------------------------------|
 A/9------------------------------|-------------------------------|
 E/7------------------------------|-------------------------------|
 e|------- 7------ ------- -------|7------ ------7 ------- -------|
 B|--------7-------------7H9------|------7H9-------------9--------|
 G|-------------------------------|-------------------------------|
 D|-------------------------------|-------------------------------|
 A|-------------------------------|-------------------------------|
 E|-------------------------------|-------------------------------|

Doo doo doo doo doo doo doo
[----]doo doo
 
 e|------- 7------ ------- -------|------- 0------ ------- -------|
 B|--------7-------------7H9------|-------------------------------|
 G|-------------------------------|3--/--4-------4\2-----0--------|
 D|-------------------------------|------------------------2------|
 A|-------------------------------|-------------------------------|
 E|-------------------------------|-------------------------------|
 e|------- 7------ ------- -------|------- 0------ ------- 0------|
 B|--------7-------------9--------|------0-------0-------0--------|
 G|-------------------------------|3---------------3--------------|
 D|-------------------------------|-------------------------------|
 A|-------------------------------|-------------------------------|
 E|-------------------------------|-------------------------------|

doo doo doo doo doo
I'll have
you
02:00
 
 e|------- 7------ ------- -------|7------ ------7 ------- -------|
 B|--------7-------------7H9------|------7H9-------------9--------|
 G|-------------------------------|-------------------------------|
 D|-------------------------------|-------------------------------|
 A|-------------------------------|-------------------------------|
 E|-------------------------------|-------------------------------|
 e|------- 7------ ------- -------|7------ ------7 ------- -------|
 B|----------------------7H9------|------7---------------9-------7|
 G|-------------------------------|-------------------------------|
 D|--------7----------------------|-------------------------------|
 A|-------------------------------|-------------------------------|
 E|-------------------------------|-------------------------------|

Doooooo doo doo doo doo doo
[----] doo
Cookie
 
 e|10----- 9------ 7------ -------|0------ ------- ------- -------|
 B|----------------------8\7------|-------------------------------|
 G|-------------------------------|-------------------------------|
 D|-------------------------------|-------------------------------|
 A|-------------------------------|-------------------------------|
 E|-------------------------------|-------------------------------|
 e|10----- 9------ 7------ -------|0------ ------- ------- -------|
 B|----------------------8\7------|-------------------------------|
 G|-------------------------------|-------------------------------|
 D|-------------------------------|-------------------------------|
 A|-------------------------------|--/-5-----------4-------3------|
 E|-------------------------------|-------------------------------|

doo doo doo doo doo Let's
Come on
02:06
get it mmmm
You've got to get it don't forget
It doesn't come around again
You've got to get it mmmm
You've got to ....
02:16
 
 e|------- ------- ------- -------|------- ------- ------- -------|
 B|-------------------------------|-------------------------------|
 G|-------------------------------|-------------------------------|
 D|-------------------------------|-------------------------------|
 A|-------------------------------|-------------------------------|
 E|-------------------------------|0-----0-0-----0-4-----4-4-----4|

get it you to it
and got get good
 
 e|------- ------- ------- -------|------- ------- 3P2---- -------|
 B|-------------------------------|-------------------------------|
 G|-------------------------------|-------------------------------|
 D|-------------------------------|-------------------------------|
 A|-------------------------------|-------------------------------|
 E|-------------------------------|-------------------------------|
 e|------- ------- ------- -------|------- ------- ------- -------|
 B|-------------------------------|-------------------------------|
 G|-------------------------------|-------------------------------|
 D|-------------------------------|--------2-----4H5P4P2----------|
 A|0-----0-0-----0-1-----1-1-----x|2-----4-----------------4-----2|
 E|-------------------------------|-------------------------------|

(.
 
 e|------- ------- ------- -------|------- ------- ------- -------|
 B|-------------------------------|-------------------------------|
 G/4-------2-----1----------------|-------------------------------|
 D|-------------------------------|-------------------------------|
 A|-------------------------------|-------------------------------|
 E|-------------------------------|-------------------------------|
 e|------- ------- ------- -------|------- ------- ------- -------|
 B|-------------------------------|-------------------------------|
 G|-------------------------------|-------------------------------|
 D/5P4P2---4-----2----------------|-------------------------------|
 A|-------------------------------|-------------------------------|
 E|-------------------------------|-------------------------------|

B Bend
R Release
/ Slide up
\ Slide down
H Hammer-on
P Pull-off
~ Vibrato
+ Harmonic
x Mute note
. Play note like a dot in standard notation
^ Ties two notes together
(. Pause

Important: The song above is NOT stored on the Chordie server. The original song is hosted at www.guitartabs.cc. Chordie works as a search engine and provides on-the-fly formatting. Chordie does not index songs against artists'/composers' will. To remove this song please click here.

Text color:
Chord color:
Chord grids: 
Font size:    
Page size: 

A B9 D E E6 F#m
Rate #1 of 5 versions

Jango Player

Login - add to songbook

SHARE PAGE  



You need to log in to post comments