Guitar Tabs, Chords and Lyrics
Major upgrade!! After one year development the new version of Chordie is now online! Please give feedback.


Heart of the Country   Paul McCartney

 
 G|-3-----2----------------------------------------------2-|
 D|----3-----0-3-5------5-3---------------3-4-5-----5------|
 A|-----------------5--5----5-3-1--3-4-5---------5-----5---|
 E|--------------------------------------------------------|

 


 


 "Im gonna move..."


 2.


 

 
 G|-3-----2------------------------------------------------|
 D|----3-----0-3-5------5-3---------------3-4-5-----5----3-|
 A|-----------------5--5----5-3-1--3-4-5---------5-----5---|
 E|--------------------------------------------------------|

 


 


 Chorus


 "Heart of the country..."


 3.


 

 
 G|-----------------------------------------------------------5-------|
 D|-------0-5-3---------3-5~----3-0---------0-5-3---------3-5---5-3-5-|
 A|---0-1-------5-4-3-5-------------1---0-1-------5-4-3-5-------------|
 E|-3---------------------------------3-------------------------------|

 


 


 Outro


 "woo woo woo..."


 4.


 

 
 G|---------------------------------------------|
 D|----5~-/10~----------------5x----------------|
 A|-3~------------------------------------------|
 E|---------------------------------------------|

 


 


 5.


 

 
 G|-------------------------------------------|
 D|-5------5h7-8p7-5---0-5~-0-7~-0--9~--------|
 A|----5--6---------6----6~---8~---10~--------|
 E|-------------------------------------------|

 


 


 Verse


 "Want a horse..."


 6.


 

 
 G|-3-----2----------------------------------------------2-|
 D|----3-----0-3-5------5-3---------------3-4-5-----5------|
 A|-----------------5--5----5-3-1--3-4-5---------5-----5---|
 E|--------------------------------------------------------|

 


 


 "Im gonna move..."


 7.


 

 
 G|-3-----2------------------------------------------------|
 D|----3-----0-3-5------5-3---------------3-4-5-----5----3-|
 A|-----------------5--5----5-3-1--3-4-5---------5-----5---|
 E|--------------------------------------------------------|

 


 


 Chorus


 "Heart of the country..."


 8.


 

 
 G|-----------------------------------------------------------5-------|
 D|-------0-5-3---------3-5~----3-0---------0-5-3---------3-5---5-3-5-|
 A|---0-1-------5-4-3-5-------------1---0-1-------5-4-3-5-------------|
 E|-3---------------------------------3-------------------------------|

 


 


 Outro


 "woo woo woo..."


 9.


 

 
 G|---------------------------------------------|
 D|----5~-/10~----------------5x----------------|
 A|-3~------------------------------------------|
 E|---------------------------------------------|

 


 


 10.


 

 
 G|-------------------------------------------|
 D|-5------5h7-8p7-5---0-5~-0-7~-0--9~--------|
 A|----5--6---------6----6~---8~---10~--------|


Important: The song above is NOT stored on the Chordie server. The original song is hosted at www.guitartabs.cc. Chordie works as a search engine and provides on-the-fly formatting. Chordie does not index songs against artists'/composers' will. To remove this song please click here.

This song is displayed as text-only. Transposing and tuning is only available for chordpro-songs.
Rate #1 of 9 versions

Login - add to songbook

SHARE PAGE  



You need to log in to post comments