Guitar Tabs, Chords and Lyrics
Server problems seems to be fixed. Chordie has been experiencing problems with songs disappearing. These issues now seems to be fixed, but still verifying the fix. If you find anything strange, please email admin@chordie.com.


Jenny Wren  Paul McCartney

Date: 10.02.2007
Tabbed by Peter Tuyp(peter.tuyp@wxs.nl)
subject: Paul McCartney - Jenny Wren
Chords:
C x32010 x32013
Gsus2 320033
Asus4 002230
G 320003
[F]Am [133211]002210
Cm 335543 x65588
[Fm]G# [133111]xx1114
G7 320001 355463
Cm/e x75588
Bbes x13331
Tune one note down (DGCFAd)
Intro:
[C] [Gsus2] [Asus4] [G] [F]  
 
 |-0-----------------------------------------------------------------------------|
 |---------3-------1h3---3---3-----3-----3---3-----1h3-----1p0-------------------|
 |-----0-------0-------2-------2-------2-------2-------2-------0-2-----2---2-----|
 |-------------------------------------------------------------------3-----3---3-|
 |-3---------------0---------------0---------------0-----------------------------|
 |---------3---------------0---------------0---------------3-----1---------1-----|

[F] [G] [Am]  
 
 |-------------------------------------------------------------------------------|
 |---------0-------0h1---1---1-----1-----1---1-----1-----1---1-----1-----1---1---|
 |-2-------------------2-------2-------2-------2-------2-------2-------2-------2-|
 |-----3-------------------------------------------------------------------------|
 |-----------------0---------------0---------------0---------------0-------------|
 |-1-------3---------------0---------------0---------------0---------------0-----|

Verse 1:
[C] [Gsus2] [Asus4] [G] [F]  
 
 |-0-----------------------------------------------------------------------------|
 |---------3-------1h3---3---3-----3-----3---3-----1h3-----1p0-------------------|
 |-----0-------0-------2-------2-------2-------2-------2-------0-2-----2---2-----|
 |-------------------------------------------------------------------3-----3---3-|
 |-3---------------0---------------0---------------0-----------------------------|
 |---------3---------------0---------------0---------------3-----1---------1-----|

Like so many girls, Jenny Wren could sing
[F] [G] [Am] [Gsus2] [Cm]  
 
 |-------------------------------------------------------------------------------|
 |---------0-------0h1---1---1-----1-----1---1-----1-----1---1-----1-----1---1---|
 |-2-------------------2-------2-------2-------2-------2-------2-------2-------2-|
 |-----3-------------------------------------------------------------------------|
 |-----------------0---------------0---------------0---------------0-------------|
 |-1-------3---------------0---------------0---------------0---------------0-----|

But a broken heart, took her song away
[Cm]  
 
 |-----------------------------------------------|
 |-4-----4---4-----4-----4---4-----4-----4---4---|
 |-----0-------0-------0-------0-------0-------0-|
 |-----------------------------------------------|
 |-3---------------3---------------3-------------|
 |---------3---------------3---------------3-----|

Verse 2:
[C] [Gsus2] [Asus4] [G] [F]  
 
 |-0-----------------------------------------------------------------------------|
 |---------3-------1h3---3---3-----3-----3---3-----1h3-----1p0-------------------|
 |-----0-------0-------2-------2-------2-------2-------2-------0-2-----2---2-----|
 |-------------------------------------------------------------------3-----3---3-|
 |-3---------------0---------------0---------------0-----------------------------|
 |---------3---------------0---------------0---------------3-----1---------1-----|

Like the other girls, Jenny Wren took wing
[F] [G] [Am] [Gsus2] [Cm]  
 
 |-------------------------------------------------------------------------------|
 |---------0-------0h1---1---1-----1-----1---1-----1-----1---1-----1-----1---1---|
 |-2-------------------2-------2-------2-------2-------2-------2-------2-------2-|
 |-----3-------------------------------------------------------------------------|
 |-----------------0---------------0---------------0---------------0-------------|
 |-1-------3---------------0---------------0---------------0---------------0-----|

She could see the world and its foolish ways
[Cm]  
 
 |-----------------------------------------------|
 |-4-----4---4-----4-----4---4-----4-----4---4---|
 |-----0-------0-------0-------0-------0-------0-|
 |-----------------------------------------------|
 |-3---------------3---------------3-------------|
 |---------3---------------3---------------3-----|

Chorus:
[Cm] [Cm] [Fm] [C] [G#]  
 
 |---------------------------------1-------3---3---4-----4-------|
 |-8-----8-----8---4-----4---4-------------------------------1---|
 |-----0-----0---------0-------0-----------------------1-------1-|
 |---------------------------------3---3---2-------1-------1-----|
 |-6-------6-------3-------3-------------------------------------|
 |---------------------------------------------------------------|

How we spend our days
[G7] [Cm] [G7] [Cm]  
 
 |-1-------------------------------------------------------------|
 |-------0---0-----0-----0--0-----4-------6-------8-----8-----8--|
 |-----0-------0-------0------0-------0-------0-------0-----0----|
 |---------------------------------------------------------------|
 |--------------------------------3-------5-------6-------6------|
 |-3-------3-------3-------3-------------------------------------|

Ca- sting love a- side
Cm/e Fm C G#
 
 |---------------------------------1-------3---3---4-----4-------|
 |-8-----8-----8---8-----8-----8-----------------------------1---|
 |-----0-----0---------0-----0-------------------------1-------1-|
 |---------------------------------3---3---2-------1-------1-----|
 |-7-------7-------7-------7-------------------------------------|
 |---------------------------------------------------------------|

Lo- sing sight of life
[G7] [Cm]  
 
 |-1---------------------------------------------|
 |-------0---0-----0-----0---0-----4-----4---4---|
 |-----0-------0-------0-------0-------0-------0-|
 |-----------------------------------------------|
 |---------------------------------3-------------|
 |-3-------3-------3-------3---------------3-----|

Day by day
[Cm]  
 
 |-----------------------------------------------|
 |-4-----4---4-----4-----4---4-----4-----4---4---|
 |-----0-------0-------0-------0-------0-------0-|
 |-----------------------------------------------|
 |-3---------------3---------------3-------------|
 |---------3---------------3---------------3-----|

Verse 3:
[C] [Gsus2] [Asus4] [G] [F]  
 
 |-0-----------------------------------------------------------------------------|
 |---------3-------1h3---3---3-----3-----3---3-----1h3-----1p0-------------------|
 |-----0-------0-------2-------2-------2-------2-------2-------0-2-----2---2-----|
 |-------------------------------------------------------------------3-----3---3-|
 |-3---------------0---------------0---------------0-----------------------------|
 |---------3---------------0---------------0---------------3-----1---------1-----|

She saw poverty breaking up a home
[F] [G] [Am] [Gsus2] [Cm]  
 
 |-------------------------------------------------------------------------------|
 |---------0-------0h1---1---1-----1-----1---1-----1-----1---1-----1-----1---1---|
 |-2-------------------2-------2-------2-------2-------2-------2-------2-------2-|
 |-----3-------------------------------------------------------------------------|
 |-----------------0---------------0---------------0---------------0-------------|
 |-1-------3---------------0---------------0---------------0---------------0-----|

Woun ded warriors took her song away
[Cm]  
 
 |-----------------------------------------------|
 |-4-----4---4-----4-----4---4-----4-----4---4---|
 |-----0-------0-------0-------0-------0-------0-|
 |-----------------------------------------------|
 |-3---------------3---------------3-------------|
 |---------3---------------3---------------3-----|

Bridge:
Cm Bbes Am
 
 |---------------------------------------------------------------|
 |-4-----4---4-----3---------------1-----1---1-----1-----1---1---|
 |-----0-------0-------0---0-----------2-------2-------2-------2-|
 |-----------------------------0---------------------------------|
 |-3---------------1-------1-------0-------0-------0-------0-----|
 |---------3-----------------------------------------------------| 

Cm Bbes Am
 
 |---------------------------------------------------------------|
 |-4-----4---4-----3---------------1-----1---1-----1-----1---1---|
 |-----0-------0-------0---0-----------2-------2-------2-------2-|
 |-----------------------------0---------------------------------|
 |-3---------------1-------1-------0-------0-------0-------0-----|
 |---------3-----------------------------------------------------| 

( Tab from: http://www.guitartabs.cc/tabs/p/paul_mccartney/jenny_wren_tab_ver_4.html )
Cm Bbes Am
 
 |---------------------------------------------------------------|
 |-4-----4---4-----3---------------1-----1---1-----1-----1---1---|
 |-----0-------0-------0---0-----------2-------2-------2-------2-|
 |-----------------------------0---------------------------------|
 |-3---------------1-------1-------0-------0-------0-------0-----|
 |---------3-----------------------------------------------------| 

[C]  
 
 |-------------------------------|
 |-1-----1---1-----1-----1---1---|
 |-----0-------0-------0-------0-|
 |-------------------------------|
 |-3---------------3-------------|
 |---------3---------------3-----| 

Cm/e Fm C G#
 
 |---------------------------------1-------3---3---4-----4-------|
 |-8-----8-----8---4-----4---4-------------------------------1---|
 |-----0-----0---------0-------0-----------------------1-------1-|
 |---------------------------------3---3---2-------1-------1-----|
 |-6-------6-------3-------3-------------------------------------|
 |---------------------------------------------------------------|

[G7] [Cm] [G7] [Cm]  
 
 |-1-------------------------------------------------------------|
 |-------0---0-----0-----0--0-----4-------6-------8-----8-----8--|
 |-----0-------0-------0------0-------0-------0-------0-----0----|
 |---------------------------------------------------------------|
 |--------------------------------3-------5-------6-------6------|
 |-3-------3-------3-------3-------------------------------------|

Cm/e Fm C G#
 
 |---------------------------------1-------3---3---4-----4-------|
 |-8-----8-----8---8-----8-----8-----------------------------1---|
 |-----0-----0---------0-----0-------------------------1-------1-|
 |---------------------------------3---3---2-------1-------1-----|
 |-7-------7-------7-------7-------------------------------------|
 |---------------------------------------------------------------|

[G7] [Cm]  
 
 |-1---------------------------------------------|
 |-------0---0-----0-----0---0-----4-----4---4---|
 |-----0-------0-------0-------0-------0-------0-|
 |-----------------------------------------------|
 |---------------------------------3-------------|
 |-3-------3-------3-------3---------------3-----|

[Cm]  
 
 |-----------------------------------------------|
 |-4-----4---4-----4-----4---4-----4-------------|
 |-----0-------0-------0-------0-----------------|
 |-----------------------------------------------|
 |-3---------------3---------------3-------------|
 |---------3---------------3---------------------|

Verse 4:
[C] [Gsus2] [Asus4] [G] [F]  
 
 |-0-----------------------------------------------------------------------------|
 |---------3-------1h3---3---3-----3-----3---3-----1h3-----1p0-------------------|
 |-----0-------0-------2-------2-------2-------2-------2-------0-2-----2---2-----|
 |-------------------------------------------------------------------3-----3---3-|
 |-3---------------0---------------0---------------0-----------------------------|
 |---------3---------------0---------------0---------------3-----1---------1-----|

But The day will come Jenny Wrenn will sing
[F] [G] [Am] [Gsus2] [Cm]  
 
 |-------------------------------------------------------------------------------|
 |---------0-------0h1---1---1-----1-----1---1-----1-----1---1-----1-----1---1---|
 |-2-------------------2-------2-------2-------2-------2-------2-------2-------2-|
 |-----3-------------------------------------------------------------------------|
 |-----------------0---------------0---------------0---------------0-------------|
 |-1-------3---------------0---------------0---------------0---------------0-----|

When this broken world Mends its foolish ways
[Cm]  
 
 |-----------------------------------------------|
 |-4-----4---4-----4-----4---4-----4-----4---4---|
 |-----0-------0-------0-------0-------0-------0-|
 |-----------------------------------------------|
 |-3---------------3---------------3-------------|
 |---------3---------------3---------------3-----|

Chorus:
[Cm] [Fm] [C] [G#]  
 
 |---------------------------------1-------3---3---4-----4-------|
 |-8-----8-----8---4-----4-----4-----------------------------1---|
 |-----0-----0---------0-------0-----------------------1-------1-|
 |---------------------------------3---3---2-------1-------1-----|
 |-6-------6-------3-------3-------------------------------------|
 |---------------------------------------------------------------|

Then we'll spend our days
[G7] [Cm] [G7] [Cm]  
 
 |-1-------------------------------------------------------------|
 |-------0---0-----0-----0--0-----4-------6-------8-----8-----8--|
 |-----0-------0-------0------0-------0-------0-------0-----0----|
 |---------------------------------------------------------------|
 |--------------------------------3-------5-------6-------6------|
 |-3-------3-------3-------3-------------------------------------|

Ca- tching up on life
Cm/e Fm C G#
 
 |---------------------------------1-------3---3---4-----4-------|
 |-8-----8-----8---8-----8-----8-----------------------------1---|
 |-----0-----0---------0-----0-------------------------1-------1-|
 |---------------------------------3---3---2-------1-------1-----|
 |-7-------7-------7-------7-------------------------------------|
 |---------------------------------------------------------------|

All be- cause of you
[G7] [Cm]  
 
 |-1---------------------------------------------|
 |-------0---0-----0-----0---0-----4-----4---4---|
 |-----0-------0-------0-------0-------0-------0-|
 |-----------------------------------------------|
 |---------------------------------3-------------|
 |-3-------3-------3-------3---------------3-----|

Jen- ny Wren
[Cm]  
 
 |-----------------------------------------------|
 |-4-----4---4-----4-----4---4-----4-----4---4---|
 |-----0-------0-------0-------0-------0-------0-|
 |-----------------------------------------------|
 |-3---------------3---------------3-------------|
 |---------3---------------3---------------3-----| 

Chorus:
[Cm] [Fm] [C] [G#]  
 
 |---------------------------------1-------3---3---4-----4-------|
 |-8-----8-----8---8-----8-----8-----------------------------1---|
 |-----0-----0---------0-----0-------------------------1-------1-|
 |---------------------------------3---3---2-------1-------1-----|
 |-6-------6-------7-------7-------------------------------------|
 |---------------------------------------------------------------|

You saw who we are
[G7] [Cm]  
 
 |-1-------------------------------------------------------------|
 |-------0---0-----0-----0---0-----4-----4---4-----4-----4---4---|
 |-----0-------0-------0-------0-------0-------0-------0-------0-|
 |---------------------------------------------------------------|
 |---------------------------------3---------------3-------------|
 |-3-------3-------3-------3---------------3---------------------|

Jen- ny Wren
Cm Bbes Am
 
 |---------------------------------------------------------------|
 |-4-----4---4-----3---------------1-----1---1-----1-----1---1---|
 |-----0-------0-------0---0-----------2-------2-------2-------2-|
 |-----------------------------0---------------------------------|
 |-3---------------1-------1-------0-------0-------0-------0-----|
 |---------3-----------------------------------------------------| 

Cm Bbes Am
 
 |---------------------------------------------------------------|
 |-4-----4---4-----3---------------1-----1---1-----1-----1---1---|
 |-----0-------0-------0---0-----------2-------2-------2-------2-|
 |-----------------------------0---------------------------------|
 |-3---------------1-------1-------0-------0-------0-------0-----|
 |---------3-----------------------------------------------------| 

Cm Bbes Am
 
 |---------------------------------------------------------------|
 |-4-----4---4-----3---------------1-----1---1-----1-----1---1---|
 |-----0-------0-------0---0-----------2-------2-------2-------2-|
 |-----------------------------0---------------------------------|
 |-3---------------1-------1-------0-------0-------0-------0-----|
 |---------3-----------------------------------------------------| 

[C]  
 
 |-------------------------------|
 |-1-----1---1-----1-----1---1---|
 |-----0-------0-------0-------0-|
 |-------------------------------|
 |-3---------------3-------------|
 |---------3---------------3-----| 

outro:
[Cm] [Am] [Cm] [Am]  
 
 |-------------------------------------------0-------------------|
 |-------4\1-------1---------------------4---------1---------1-1-|
 |-5---------------------2---------5---------------------2---2-2-|
 |-----5---------------2---------------5---------------2---------|
 |-3---------------0---------------3---------------0-------------|
 |---------------------------------------------------------------|

[Cm] [Am] [C]  
 
 |----------0--------------------------0-|
 |-------4-------1---------1-1---------1-|
 |-5-------------------2---2-2---------2-|
 |-----5-------------2-----------------0-|
 |-3-------------0---------------------3-|
 |---------------------------------------|


Important: The song above is NOT stored on the Chordie server. The original song is hosted at www.guitartabs.cc. Chordie works as a search engine and provides on-the-fly formatting. Chordie does not index songs against artists'/composers' will. To remove this song please click here.

Text color:
Chord color:
Chord grids: 
Font size:    
Page size: 

Am Asus4 C Cm F Fm G G# G7 Gsus2
Rate #1 of 9 versions

Jango Player

Login - add to songbook

SHARE PAGE  




You need to log in to post comments