Guitar Tabs, Chords and Lyrics
Major upgrade!! After one year development the new version of Chordie is now online! Please give feedback.


Singalong Junk  Paul McCartney

FROM THE ALBUM MCCARTNEY (1970)
TABBED BY ERIC VOIGT
[F#m] [C#7] [F#m7/E] [Dmaj] [A] [Asus4] [D7sus4] [Dm] [E]  
 
 |-2-| |---| |-2-| |-2-| |-0-| |-0-| |-3-| |-1-| |-0-|
 |-2-| |-2-| |-2-| |-2-| |-2-| |-3-| |-3-| |-3-| |-0-|
 |-2-| |-4-| |-2-| |-2-| |-2-| |-2-| |-2-| |-2-| |-1-|
 |-4-| |-3-| |-2-| |-0-| |-2-| |-2-| |-0-| |-0-| |-2-|
 |---| |-4-| |---| |---| |-0-| |-0-| |---| |---| |-2-|
 |---| |---| |---| |---| |---| |---| |---| |---| |---|
 |-----------------------------------2---2----2--4-5-7--2-----5--|
 |--2--3-2--------2---------2--3--2------2----2------------2-----|
 |---------2---4-----4------2------------2----2------------2-----|
 |--4-------------------3---2------------0----0---------0--------|
 |-------------4-------------------------------------------------|
 |---------------------------------------------------------------|

|
| F#m C#7 F#m7/E Dmaj7
|
 
 |-------X-X----------------------X-X-------X-X----X-X-----X--X--|
 |-------X-X---------X-X----------X-X-------X-X----X-X-----X--X--|
 |-------X-X---------X-X----------X-X-------X-X----X-X-----X--X--|
 |--X----------------X-X----X------------X-------X------X--------|
 |-------------X-------------------------------------------------|
 |---------------------------------------------------------------|
 |-----------------|
 |---2--3----2--2--|
 |---2--2----2--2--|
 |---2--2----2--2--|
 |-0-0--0--0-0--0--|
 |-----------------|

|
| A Asus4 A
|
 
 |---X--X----X--X--|
 |---X--X----X--X--|
 |---X--X----X--X--|
 |---X--X----X--X--|
 |-X-------X-------|
 |-----------------|
 |-3--1-0---------------0---3--1-0-------------|
 |-3--3-2-3-2-0-2-3-2-3-2---3--3-2-3-2-0-2-3-2-|
 |--------4-2-1-2-4-2-4------------4-2-1-2-4-2-|
 |-0------------------------0------------------|
 |------0-----------0------------0-----------0-|
 |------------0------------------------0-------|

|
|
|
 
 |-D7sus4-A---E-----A-----D7sus4-A-----E-----A-|


Important: The song above is NOT stored on the Chordie server. The original song is hosted at www.guitartabs.cc. Chordie works as a search engine and provides on-the-fly formatting. Chordie does not index songs against artists'/composers' will. To remove this song please click here.

Text color:
Chord color:
Chord grids: 
Font size:    
Page size: 

A Asus4 C#7 D7sus4 Dm Dmaj E F#m F#m7/E
Rate #1 of 4 versions

Jango Player

Login - add to songbook

SHARE PAGE  




You need to log in to post comments