Guitar Tabs, Chords and Lyrics
Server problems seems to be fixed. Chordie has been experiencing problems with songs disappearing. These issues now seems to be fixed, but still verifying the fix. If you find anything strange, please email admin@chordie.com.


Not for You   Pearl Jam

 
 --0--0--0--
 --0--0--0--
 --1--3--4--
 --2--4--5--
 --2--4--5--
 --0--0--0--

 


 


 


 


 pre-solo stuff


 

 
 ----------------- -----------------
 ----------------- -----------------
 ----------------- -----------------
 -3-5-7-5--------- -3-5-7-5---------
 ---------7-5-3-2- ---------7-3-2-3-
 ----------------- -----------------
 ----------------- -----------------
 ----------------- -----------------
 ----------------- -------5-4-------
 -3-5-7-5--------- -3-5-7-----------
 ---------7-5-3-2- -----------------
 ----------------- -----------------

 


 


 post solo stuff


 

 
 --0--0--0--
 --0--0--0--
 --1--3--1--
 --2--4--2--
 --2--4--2--
 --0--0--0--

 


 


 


 Date: Fri, 20 Oct 1995 23:44:44 -0500 (CDT)


 From: Denny


 


 : I sat down for a while and drew up my thoughts on paper before I put them


 : on the computer. This is what I came up with. I think it's pretty damn


 : close, but you can improvise:


 [ Tab from: bttp://www.guitartabs.cc/tabs/p/pearl_jam/not_for_you_tab.btml ] 


 : Solo 'Not for You'


 

 
 : -------------------------------------------------------------------------
 : -------------------------------------------------------------------------
 : -------------------------------------------------------------------------
 : -3--5--7--5--2--0--------3--5--7--5--2--------2--3--5--7--5--2--0--------
 : -------------------3--2-----------------2--3-----------------------3--2--
 : -------------------------------------------------------------------------
 : ----------------[---0-0-0-0-0-0-------12--------] Repeat last
 : ----------------[---0-0-0-0-0-0----------12-----] section once.
 : ----------------[---1-1-1-1-1-1---/14-----------]
 : -3--5--7--10--9-[----------------------------14-]
 : ----------------[-------------------------------]
 : ----------------[-------------------------------]
 : --------------------------------12------------------------------------------- : -12---12--12---12----------12------15--12------------------------------------
 : -14b--14b-14b--14b----/14--14b-------------14p12-------14--12--11--9--11--12-
 : --------------------------------------------------14-------------------------
 : -----------------------------------------------------------------------------
 : -----------------------------------------------------------------------------
 : --------------0----------------- END SOLO
 : --------------------------------
 : -14--16-------------------------
 : ----------------------//--\\----
 : ----------------------//--\\----
 : --------------------------------

 


 


 : Some Beginning Stuff:


 

 
 : --0-----0--------------;-------------------;---0-----0-----
 : --0--0--0--------------;--12---12-12-12----;---0-----0-----
 : --1--3--4--------------;--14---14-14-14h16-;---7-x-x-7-----
 : --2--4--5--------------;-------------------;---------------
 : --2--4--5--------------;-------------------;---------------
 : --0--0--0--0-0--0-0-0--;-------------------;---------------


Important: The song above is NOT stored on the Chordie server. The original song is hosted at www.guitartabs.cc. Chordie works as a search engine and provides on-the-fly formatting. Chordie does not index songs against artists'/composers' will. To remove this song please click here.

This song is displayed as text-only. Transposing and tuning is only available for chordpro-songs.
Rate #2 of 9 versions

Jango Player

Login - add to songbook

SHARE PAGE  




You need to log in to post comments