Guitar Tabs, Chords and Lyrics
Major upgrade!! After one year development the new version of Chordie is now online! Please give feedback.


World Wide Suicide  Pearl Jam

4/3/06
Alright, this is the whole song. Rock on!
Whilst the bass starts with the main riff, there is lead guitar pulling off
 
 e|--9-5-9-5-9-5-9-5-9-5-9-5--|

I[A] felt the earth on a Monday[E]
[A]It moved beneath my feet[E]
[G]In the form of the morning paper
[G]Laid out for me to see
Saw his face in the corner picture
I recognized the name
Could not stop staring at the
Face I'd never see again
Prechorus
Main riff
 
 e|---------------------------------------------------------------|
 b|---------------------------------------------------------------|
 g|------------5--------------------5-------------------------5---|
 d|---7-7----5---5-5-5----7-7--5---5-5-5-------7-7---5---5-5-5----|
 a|---7-7----3---5-5-5----7-7--3---5-5-5-------7-7---3---5-5-5----|
 E|---5-5---------3-3-3----5-5------3-3-3-------5-5--------3-3-3--|

It's the shade to a wicked world of pain , what does it mean
It's the same every day I heard my name, Why can't we see
 
 e|-------------------------------------|
 b|-------------------------------------|
 g|---7-7-7-7-7-7-7---------------------|
 d|---7-7-7-7-7-7-7---------------------|
 a|---5-5-5-5-5-5-5---------------------|
 E|-------------------------------------|

When the war is taking over?
The worry's left to hold on?
( Tab from: http://www.guitartabs.cc/tabs/p/pearl_jam/world_wide_suicide_tab_ver_2.html )
Main riff over chorus
The whole world!
World over!
Yeah it's World Wide Suicide x2
[A]Medals on a wooden mantle[E]
[A]Next to a handsome face[E]
[G]That the President took for granted
[G]Writing cheques that others pay
And in all the madness
Thought becomes nothing oh yeah
So much to talk about
Yet nothing for us to say
Main riff
It's the same every day
And the weight won't break
How're you to pray
While the devil's on his shoulder?
Laying claims to the tainted soldier
Said not gonna quit and
The truth's already out there
Chorus (Main riff)
The whole world!
World over!
Yeah it's world wide suicide!! x2
 
 e|--------------------------------------------|
 b|--------------------------------------------|
 g|--------------------------------------------|
 d|----9-9-9-9-9-9-7-7-7-7---------------------|
 a|----9-9-9-9-9-9-7-7-7-7---------------------|
 E|----7-7-7-7-7-7-5-5-5-5---------------------|

[B]Looking in the eyes of the fallen
You've got to know you're another
Another
Another
Another
WAAAAAAASTE!
Main riff
It's the shade to a wicked world of pain
What does it mean
When the war is taking over?
It's the same every day
And the weight won't break
Tell you to pray
While the devil's on his shoulder
Chorus
The whole world
World over
It's World Wide Suiiiiiiiiiiiiiiicide x4

Important: The song above is NOT stored on the Chordie server. The original song is hosted at www.guitartabs.cc. Chordie works as a search engine and provides on-the-fly formatting. Chordie does not index songs against artists'/composers' will. To remove this song please click here.

Text color:
Chord color:
Chord grids: 
Font size:    
Page size: 

A B E G
Rate #1 of 11 versions

Login - add to songbook

SHARE PAGE  




You need to log in to post comments