Guitar Tabs, Chords and Lyrics
Update 25:10. 13:00. Site is back up running again. Songbooks are recovered. Woring on getting search back up..


Always a Winner  Pete Murray

Hey guys, this is a capo version of the song and is really easy to play.
Enjoy :)
Brandon Maloney (epiphone23)
Capo 3
Main Riff:
 
 e|-------------------------------------------------|
 B|-------------------------------------------------|
 G|-------------------------------------------------|
 D|--------0--2--0----------------------------------|
 A|--0--2-----------2--0-----0----------------------|
 E|-----------------------4-----4--0----------------|
 e|-------------------------------------------------|
 B|-------------------------------------------------|
 G|-------------------------------------------------|
 D|--------0--2--0----------------------------------|
 A|--0--2-----------2--0-----0----------------------|
 E|-----------------------4-----4-------------------|

[E]Hey, see it [G]my way
If we [D]all had a dream
We could [E]bust this place
And we could [E]take it down
Like a [G]runaway train
I [D]bet you could make me smile
Like Iím [E]going insane
So[E] pick your style
And [G]pick your place
And we can [D]burn like the summer
With [E]amazing grace
Gonna [E]win now
Cause I [G]know you are
You are my [D]one true love
And you [E]got me this far
(Chorus)
[E] [G]Always a winner,[D]
Yeah youíre [E]always a winner for me[E]
A[G]lways a winner,[D]
Yeah youíre [E]always a winner for me[E]
Main Riff
( Tab from: http://www.guitartabs.cc/tabs/p/pete_murray/always_a_winner_crd_ver_2.html )
With my [E]best friend
I put my [G]best foot forward
Gonna [D]dry you out like a [E]winter time wind
And I [E]wonít stop now, [G]no Iíll keep coming
Better [D]knock me down sober so I[E] canít get up
[E]This time weíll see the [G]last time
Oh youíre [D]always a winner
Donít you [E]burn yourself off
(Chorus)
[E] [G]Always a winner,[D]
Yeah youíre [E]always a winner for me[E]
A[G]lways a winner,[D]
Yeah youíre [E]always a winner for me[E]
Main Riff
Solo - Repeat Chords
[E]Pick me up, donít [G]bring me down
[D]Take me right now to the [E]other side of town
Thatís where I[E] wanna be, you and me[G] alone
Weíve gotta [D]build it right up so we can [E]make it our home
[E]Beauty man, there ainít no [G]beauty man seen
Iím gonna [D]break it right now
Youíre a [E]winner to me
(Chorus)
[E] [G]Always a winner,[D]
Yeah youíre [E]always a winner for me[E]
A[G]lways a winner,[D]
Yeah youíre [E]always a winner for me[E]
Main Riff
[End] 

Important: The song above is NOT stored on the Chordie server. The original song is hosted at www.guitartabs.cc. Chordie works as a search engine and provides on-the-fly formatting. Chordie does not index songs against artists'/composers' will. To remove this song please click here.

Text color:
Chord color:
Chord grids: 
Font size:    
Page size: 

D E G
Rate #2 of 7 versions

Login - add to songbook

SHARE PAGE  



You need to log in to post comments