Guitar Tabs, Chords and Lyrics
Server problems seems to be fixed. Chordie has been experiencing problems with songs disappearing. These issues now seems to be fixed, but still verifying the fix. If you find anything strange, please email admin@chordie.com.


Have a Cigar   Pink Floyd

 
 |-------------||-------------------|--------------|--------------------|
 |-------------||-------------------|--------------|--------------------|
 |--x-x-x-x-x\-||-------------------|--------------|--------------------|
 |--x-x-x-x-x\-||----2--------2---2-|--2-----0-----|---2---------2---2--|
 |--x-x-x-x-x\-||----2--------2---2-|--2-----------|---2---------2---2--|
 |-------------||-0-(0)-0-3b4-------|----0-3---3---|-0---0-3b3.5--------|
 |---------------------|-------------------|
 |---------------------|-------------------|
 |----------x-x-x-x-x\-|-------------------|
 |--2-----0-x-x-x-x-x\-|---2---------2---2-|
 |--2-------x-x-x-x-x\-|---2---------2---2-|
 |----0-3--------------|-0---0-3b3.5-------|

 


 


 Gtr II


 ~


 

 
 |--------------|-------------------|-----------------|
 |--------------|-------------------|-----------------|
 |--------------|-------------------|-----------------|
 |--------------|-----------------2-|-(2)-0-----------|
 |--------------|-------------------|-------2-1-0-----|
 |--------------|-------------------|-------------3---|

 


 |


 | Gtr I


 | ~ ~


 

 
 |--------------|-------------------|-----------------|
 |--------------|-------------------|-----------------|
 |--------------|-------------------|-----------------|
 |--2-----0-----|---2---------2---2-|-(2)-0-----------|
 |--2-----------|---2---------2-----|-------2-1-0-----|
 |----0-3---3---|-0---0-3b3.5-------|-------------3---|

 


 


 ~~~


 

 
 |----------------------|-------------------|----------------------|
 |----------------------|-------------------|----------------------|
 |-----------------2b4==|=(2)-------(2)-----|-(2)r(2)--------------|
 |----------------------|-------------------|----------------------|
 |----------------------|-------------------|----------------------|
 |----------------------|-------------------|----------------------|

 


 |


 | ~


 

 
 |----------------------|-------------------|----------------------|
 |----------------------|-------------------|----------------------|
 |----------------------|-------------------|----------------------|
 |---2---------2---2----|-----2------0------|------2----------2----|
 |---2---------2---2----|-----2-------------|------2----------2----|
 |-0---0-3b3.5----------|-------0-3-----3---|--0------0-3b3.5------|

 


 


 ~~~~~~~~~~~~~~~~~~


 

 
 |---------------|---------------|-----------------|-------------|
 |---------------|---------------|-----------------|-------------|
 |---------------|---------------|-----------------|-------------|
 |-2---4-(4)--5--|---------------|-----------------|-------------|
 |---------------|-3-------(3)\--|-----------------|-------------|
 |---------------|---------------|-----------------|-------------|

 


 |


 | ~~~~~~~~~~~~~


 

 
 |---------------|------0--------|-(0)-0-----------|-------------|
 |---------------|------1--------|-(1)-1---1-------|--------1----|
 |---------------|------0--------|-(0)-0-----0---0-|------0------|
 |-2---4-(4)--5--|------2--------|-(2)-2-------2---|----2--------|
 |---------------|-3-------------|-----3-----------|-3-----------|
 |---------------|---------------|-----------------|-------------|

 


 


 ~~~~~~~~~~~~~~~~~~


 

 
 |---------------|----------------------------|
 |---------------|----------------12-12-12-12-|
 |---------------|----------------12-12-12-12-|
 |-----5-(5)--4--|-2--------------------------|
 |-3-------------|----------------------------|
 |---------------|----------------------------|

 


 |


 | ~~~~~~~~~~~~~


 

 
 |---------------|----------------------------|
 |---------------|----------------------------|
 |---------------|----------------------------|
 |-----5-(5)--4--|---2---------2---------2----|
 |-3-------------|---2---------2---------2----|
 |---------------|-0---0-3b3.5----------------|
 |-----------------|------------------|
 |-12\-------------|------------------|
 |-12\-------------|------------------|
 |-----------------|------------------|
 |-----------------|------------------|
 |-----------------|------------------|

 


 |


 | ~


 

 
 |-----------------|------------------|
 |-----------------|------------------|
 |-----------------|------------------|
 |-----2-----0-----|---2---------2----|
 |-----2-----------|---2---------2----|
 |-------0-3---3---|-0---0-3b3.5------|

 


 


 ~~~~~~~~~~~~~~~~~~~~~~~~~~~~~~~~~~~~~~~~~~~~~~~~~


 

 
 |---------------|------------|---------------|---------------|
 |---------------|------------|---------------|---------------|
 |---------------|------------|---------------|---------------|
 |-2---4-(4)--5--|------------|---------------|---------------|
 |---------------|-3----------|-(3)-----------|-(3)-----------|
 |---------------|------------|---------------|---------------|

 


 |


 | ~~~~~~~~~~~~~


 

 
 |---------------|------0-----|--------0-0----|----------0----|
 |---------------|------1---1-|-(1)----1-1----|--------1-1----|
 |---------------|------0-----|--------0-0--0-|------0---0----|
 |-2---4-(4)--5--|------2-----|---------------|--2------------|
 |---------------|-3----------|---------------|---------------|
 |---------------|------------|---------------|---------------|

 


 


 ~~~~~~~~~~~~~ [5/4] [4/4] ~


 

 
 |--------------|---------------|--------------------|-------------------|
 |--------------|---------------|--------------------|-------------------|
 |--------------|---------------|--------------------|-------------------|
 |-0------------|-5---4-(4)-----|--------------------|-------------------|
 |--------------|------------7--|-(7)-5---4--3-4-5-6-|-7-----------------|
 |--------------|---------------|--------------------|-------------------|

 


 |


 | Gtr I


 | ~~~~~~~~~~~~~


 

 
 |----------2---|---------------|--------------------|-------------------|
 |----------3---|---------------|--------------------|-------------------|
 |----------2---|---------------|--------------------|-------------------|
 |-0----(0)-----|-5---4-(4)-----|--------------------|---2---------2---2-|
 |--------------|------------7--|-(7)-5---4--3-4-5-6-|---2---------2---2-|
 |--------------|---------------|--------------------|-0---0-3b3.5-------|
 |--------------------|-----------------------------|---------------------|
 |------------15b17===|=(15)--------------(15)r(15)-|---------------------|
 |--------------------|-----------------------------|---------------------|
 |--------------------|-----------------------------|---------------------|
 |--------------------|-----------------------------|---------------------|
 |--------------------|-----------------------------|---------------------|

 


 |


 | ~


 

 
 |--------------------|-----------------------------|---------------------|
 |--------------------|-----------------------------|---------------------|
 |--------------------|-----------------------------|----------x-x-x-x-x\-|
 |--2-----0-----------|------2---------2---------2--|--2-----0-x-x-x-x-x\-|
 |--2-----------------|------2---------2---------2--|--2-------x-x-x-x-x\-|
 |----0-3---3---------|---0----0-3b3.5--------------|----0-3---x-x-x-x-x\-|

 


 


 Verse


 Gtr I


 ~


 

 
 |-------------------|--------------|
 |-------------------|--------------|
 |-------------------|--------------|
 |---2---------2---2-|--2-----0-----|
 |---2---------2---2-|--2-----------|
 |-0---0-3b3.5-------|----0-3---3---|

 


 |


 | Gtr II


 

 
 |-------------------|--------------|
 |-------------------|--------------|
 |-------------------|--------------|
 |-------------------|--------------|
 |-------------------|--------------|
 |-------------------|--------------|

 


 


 ~~~


 

 
 |----------------------|-----------------------|
 |----------------------|-----------------------|
 |----------------------|-----------------------|
 |---2---------2------2-|-----2--------0--------|
 |---2---------2------2-|-----2-----------------|
 |-0---0-3b3.5----------|--------0--3------3----|

 


 |


 | ~~~


 

 
 |----------------------|-----------------------|
 |----------------------|-----------------------|
 |-------------2b4======|=(2)---(2)---(2)r(2)---|
 |----------------------|-----------------------|
 |----------------------|-----------------------|
 |----------------------|-----------------------|
 |------------------|----------------|----------------|
 |------------------|--------1-------|--------3-------|
 |------------------|------0---0---0-|------0---0---0-|
 |---2---------2----|----2-------2---|----4-------4---|
 |---2---------2----|-3--------------|-5--------------|
 |-0---0-3b3.5------|----------------|----------------|

 


 


 Gtr II


 

 
 |-----------------------|------------------|-------------------|--------------|
 |-------15-----(15)-----|-(15)-------------|-------------------|--------------|
 |-------14b16==(14)r====|=(14)-------------|-------------------|--------------|
 |-----------------------|------------------|-------------------|--------------|
 |-----------------------|------------------|-------------------|--------------|
 |-----------------------|------------------|-------------------|--------------|

 


 |


 | Gtr I


 | ~ ~


 

 
 |-----------------------|------------------|-------------------|--------------|
 |-----------------------|------------------|-------------------|--------------|
 |-----------------------|------------------|-------------------|--------------|
 |---2------------2----2-|------2-----0-----|---2---------2---2-|--2-----0-----|
 |---2------------2----2-|------2-----------|---2---------2---2-|--2-----------|
 |-0---0--3b3.5----------|--------0-3---3---|-0---0-3b3.5-------|----0-3---3---|
 |-------------------|-------------------|
 |-------------------|------------12/-14-|
 |-------------------|------------12/-14-|
 |-------------------|-------------------|
 |-------------------|-------------------|
 |-------------------|-------------------|

 


 |


 | ~


 

 
 |-------------------|-------------------|
 |-------------------|-------------------|
 |-------------------|-------------------|
 |---2---------2---2-|--2-----0----------|
 |---2---------2---2-|--2----------------|
 |-0---0-3b3.5-------|----0-3---3--------|

 


 


 ~~~~


 

 
 |-----------------------|-----------------------|
 |-12---(12)-------------|-----------------------|
 |-12---(12)-------------|------------2b4==(2)---|
 |-----------------------|-----------------------|
 |-----------------------|-----------------------|
 |-----------------------|-----------------------|

 


 |


 | ~


 

 
 |-----------------------|-----------------------|
 |-----------------------|-----------------------|
 |-----------------------|-----------------------|
 |----2------------2---2-|--2-----0--------------|
 |----2------------2---2-|--2--------------------|
 |--0-----0--3b3.5-------|----0-3---3------------|
 |----------------------|----------------|----------------|
 |----------------------|----------------|----------------|
 |-(2)r(2)--------------|----------------|----------------|
 |----------------------|----------------|----------------|
 |----------------------|----------------|----------------|
 |----------------------|----------------|----------------|

 


 |


 

 
 |----------------------|----------------|----------------|
 |----------------------|--------1-------|--------3-------|
 |----------------------|------0---0---0-|------0---0---0-|
 |------2----------2----|----2-------2---|----4-------4---|
 |------2----------2----|-3--------------|-5--------------|
 |--0------0-3b3.5------|----------------|----------------|

 


 


 Gtr II


 ~~~~


 

 
 |----------------12--------|------------------------|
 |-------------------15b17==|=(15)-------(15)r(15)---|
 |--------------------------|------------------------|
 |--------------------------|------------------------|
 |--------------------------|------------------------|
 |--------------------------|------------------------|

 


 |


 | Gtr I


 | ~~~~


 

 
 |--------------------------|------------------------|
 |--------------------------|------------------------|
 |--------------------------|------------------------|
 |---2---------2------2-----|------2-------0---------|
 |---2---------2------2-----|------2-----------------|
 |-0---0-3b3.5--------------|--------0-3--------3----|
 |-------------------|--------------|
 |-------------------|--------------|
 |-------------------|--------------|
 |-------------------|--------------|
 |-------------------|--------------|
 |-------------------|--------------|

 


 |


 | ~


 

 
 |-------------------|--------------|
 |-------------------|--------------|
 |-------------------|--------------|
 |---2---------2---2-|--2-----0-----|
 |---2---------2---2-|--2-----------|
 |-0---0-3b3.5-------|----0-3---3---|

 


 


 Chorus


 [5/4] Gtr I[4/4] [2/4] [3/4]


 

 
 |-0--x-0-(0)--0----|---------------|--------|-2-2-2-2--2-|
 |-1--x-3-(3)--0----|-----1--1--0-1-|-(1)----|-3-3-3-3--3-|
 |-0--x-0-(0)--0----|---0-----------|--------|-2-2-2-2--2-|
 |-2--x-4-(4)--2----|-2-------------|--------|-0-0-0-0--0-|
 |-3--x-5-(5)--2----|---------------|--------|------------|
 |-------------0----|---------------|--------|------------|

 


 


 [4/4] ~


 

 
 |----------|----------------|------------------|-------------------|
 |-0--------|-(0)------------|------------------|-5-----------------|
 |-0--------|-(0)------------|----------x-----5-|---5---5-(5)---5\--|
 |-0--------|-(0)------------|----------x---5---|-----5---------5\--|
 |-2--------|-(2)-------5-5--|-5h7------x-3-----|-------------x-----|
 |-3--------|-(3)----/7------|------------------|-------------------|

 


 


 ~


 

 
 |------------|------------------|-------------------|---------------|
 |-0-----0----|------------------|-------------------|---------------|
 |-0-----0----|-4-3---3-2--------|-------------------|---------------|
 |-0-----0----|-5-4---4-3-x-x-x\-|---2---------2---2-|--2-----0------|
 |-2-----2----|-5-4---4-3-x-x-x\-|---2---------2---2-|--2------------|
 |-3--3--3----|-3-2---2-1-x-x-x\-|-0---0-3b3.5-------|----0-3---3----|

 


 


 Gtr II


 ~~~~~


 

 
 |-------------------------------|-------------------||
 |----------------15pb17r(15)p12-|-15b17-------------||
 |-------------------------------|-------------------||
 |-------------------------------|-------------------||
 |-------------------------------|-------------------||
 |-------------------------------|-------------------||

 


 |


 | Gtr I


 | ~


 

 
 |-------------------------------|-------------------||
 |-------------------------------|-------------------||
 |-------------------------------|-------------------||
 |---2---------2---------------2-|-(2)---0--------0--||
 |---2---------2-----------------|---------2-0-------||
 |-0---0-3b3.5-------------------|-------------3-----||

 


 


 Verse 2


 

 
 |-------------------|-----------------------|
 |-------------------|-----------------------|
 |-------------------|------------2pb4r(2)-0-|
 |-------------------|-----------------------|
 |-------------------|-----------------------|
 |-------------------|-----------------------|

 


 |


 | ~


 

 
 |-------------------|-----------------------|
 |-------------------|-----------------------|
 |-------------------|-----------------------|
 |---2---------2---2-|--2-----0--------------|
 |---2---------2---2-|--2--------------------|
 |-0---0-3b3.5-------|----0-3---3------------|

 


 


 Gtr I


 ~


 

 
 |-------------------|--------------------------------|
 |-------------------|--------------------------------|
 |-------------------|--------------------------------|
 |---2---------2---2-|--2---------------0-------------|
 |---2---------2---2-|--2-----------------------------|
 |-0---0-3b3.5-------|----0---3----------------3------|

 


 |


 | Gtr II


 

 
 |-------------------|--------------------------------|
 |-------------------|--------------------------------|
 |-------------------|----2b4r==(2)b4==(2)r(2)p0-2b4--|
 |-------------------|--------------------------------|
 |-------------------|--------------------------------|
 |-------------------|--------------------------------|

 


 


 Gtr I


 

 
 |------------------|----------------|----------------|
 |------------------|--------1-------|--------3-------|
 |------------------|------0---0---0-|------0---0---0-|
 |---2---------2----|----2-------2---|----4-------4---|
 |---2---------2----|-3--------------|-5--------------|
 |-0---0-3b3.5------|----------------|----------------|

 


 


 Gtr II


 

 
 |---------------------------------|
 |-15---15------------(15)-(15)----|
 |------14pb16========(14)r(14)----|
 |---------------------------------|
 |---------------------------------|
 |---------------------------------|

 


 |


 | Gtr I


 

 
 |---------------------------------|
 |---------------------------------|
 |---------------------------------|
 |----2-----------------2--------2-|
 |----2-----------------2--------2-|
 |--0----0------3b3.5--------------|
 |--------------|-------------------|--------------|
 |--------------|-------------------|--------------|
 |--------------|-------------------|--------------|
 |--------------|-------------------|--------------|
 |--------------|-------------------|--------------|
 |--------------|-------------------|--------------|

 


 |


 | ~ ~


 

 
 |--------------|-------------------|--------------|
 |--------------|-------------------|--------------|
 |--------------|-------------------|--------------|
 |--2-----0-----|---2---------2---2-|--2-----0-----|
 |--2-----------|---2---------2---2-|--2-----------|
 |----0-3---3---|-0---0-3b3.5-------|----0-3---3---|

 


 


 ~~~~


 

 
 |---------------------------|------------------|
 |----------------12/-14\-12-|-(12)-------------|
 |----------------12/-14\-12-|-(12)-------------|
 |---------------------------|------------------|
 |---------------------------|------------------|
 |---------------------------|------------------|

 


 |


 | ~


 

 
 |---------------------------|------------------|
 |---------------------------|------------------|
 |---------------------------|------------------|
 |---2---------2-----------2-|------2-----0-----|
 |---2---------2-----------2-|------2-----------|
 |-0---0-3b3.5---------------|--------0-3---3---|
 |-------------------|---------------|
 |-------------------|---------------|
 |-------------------|---------------|
 |-------------------|---------------|
 |-------------------|---------------|
 |-------------------|---------------|

 


 |


 | ~


 

 
 |-------------------|---------------|
 |-------------------|---------------|
 |-------------------|---------------|
 |---2---------2---2-|--2-----0------|
 |---2---------2---2-|--2------------|
 |-0---0-3b3.5-------|----0-3---3----|

 


 


 Gtr I


 

 
 |------------------|----------------|----------------|
 |------------------|--------1-------|--------3-------|
 |------------------|------0---0---0-|------0---0---0-|
 |---2---------2----|----2-------2---|----4-------4---|
 |---2---------2----|-3--------------|-5--------------|
 |-0---0-3b3.5------|----------------|----------------|

 


 


 ~ ~


 

 
 |-------------------|--------------|-------------------|--------------||
 |-------------------|--------------|-------------------|--------------||
 |-------------------|--------------|-------------------|--------------||
 |---2---------2---2-|--2-----0-----|---2---------2---2-|--2-----0-----||
 |---2---------2---2-|--2-----------|---2---------2---2-|--2-----------||
 |-0---0-3b3.5-------|----0-3---3---|-0---0-3b3.5-------|----0-3---3---||

 


 


 Chorus


 [5/4] [4/4] [2/4] [3/4]  

 
 |-0--x-0-(0)--0----|-0--------0-|----0--|-2-2-2-2--2-|
 |-1--x-3-(3)--0----|-1--------1-|----1--|-3-3-3-3--3-|
 |-0--x-0-(0)--0----|-0------x-0-|--x-0--|-2-2-2-2--2-|
 |-2--x-4-(4)--2----|-2------x---|--x----|-0-0-0-0--0-|
 |-3--x-5-(5)--2----|-3------x---|--x----|------------|
 |-------------0----|------------|-------|------------|

 


 


 [4/4]  

 
 |----------|--------------------|-----------------|--------------|
 |-0--------|-(0)----------------|------1-(1)--1-1-|-1-1-1-1-1----|
 |-0--------|-(0)--2b4--2b4--2p0-|----0--------0-0-|-0-0-0-0-0----|
 |-0--------|-(0)----------------|-2---------------|--------------|
 |-2--------|-(2)----------------|-----------------|--------------|
 |-3--------|-(3)----------------|-----------------|-----------3--|
 |-----------|-----------------------||
 |-0----0----|-----------------------||
 |-0----0----|-4-3---3-2-------------||
 |-0----0----|-5-4---4-3--x-----x-x\-||
 |-2----2----|-5-4---4-3--x-----x-x\-||
 |------3----|-3-2---2-1--x-----x-x\-||

 


 |


 | Gtr II


 

 
 |-----------|-----------------------||
 |-----------|-----------15b17=======||
 |-----------|-----------------------||
 |-----------|-----------------------||
 |-----------|-----------------------||
 |-----------|-----------------------||

 


 


 Outro


 ~


 

 
 |--------------------------|--------------------------|
 |--------------------------|--------------------------|
 |--------------------------|--------------------------|
 |------2-----------2-----2-|---2--------0-------------|
 |------2-----------2-----2-|---2----------------------|
 |---0----0-3b3.5-----------|-------0-3----3-----------|

 


 |


 | ~~~~~ ~~


 

 
 |--------------------------|------12------------------|
 |-(15)-----------(15)r-----|-----------15---12--------|
 |--------------------------|--(0)--------------14b16--|
 |--------------------------|--------------------------|
 |--------------------------|--------------------------|
 |--------------------------|--------------------------|

 


 


 Gtr II


 ~~~~


 

 
 |--------------------------|---------------------12h15p12-|
 |--------------------------|--15b17======(15)r------------|
 |---12b14r(12)-------------|------------------------------|
 |--------------------------|------------------------------|
 |--------------------------|------------------------------|
 |--------------------------|------------------------------|

 


 |


 | Gtr I


 | ~


 

 
 |--------------------------|------------------------------|
 |--------------------------|------------------------------|
 |--------------------------|------------------------------|
 |----2---------------2---2-|---2-----------0--------------|
 |----2---------------2---2-|---2--------------------------|
 |-0---------0--3b3.5-------|---------0-3-------3----------|

 


 


 ~~


 

 
 |-15--------------17b19--17---|-17-----15b17==(15)r(15)-15-14--|
 |-----------------------------|--------------------------------|
 |-----------------------------|--------------------------------|
 |-----------------------------|--------------------------------|
 |-----------------------------|--------------------------------|
 |-----------------------------|--------------------------------|

 


 |


 | ~~~~


 

 
 |-----------------------------|--------------------------------|
 |-----------------------------|--------------------------------|
 |-----------------------------|--------------------------------|
 |----2---------2------------2-|----2------------0--------------|
 |----2---------2------------2-|----2---------------------------|
 |--0---0-3b3.5----------------|------0--3------------3---------|
 |-14------------------------------|-----------------------------------|
 |----15---15-------12-15--15b17r==|=15p12-----------------------------|
 |---------------------------------|-----------14b15.5r14---14-12b12.5-|
 |---------------------------------|-----------------------------------|
 |---------------------------------|-----------------------------------|
 |---------------------------------|-----------------------------------|

 


 |


 | ~


 

 
 |---------------------------------|-----------------------------------|
 |---------------------------------|-----------------------------------|
 |---------------------------------|-----------------------------------|
 |-------2--------------2--------2-|-------2------------0--------------|
 |-------2--------------2--------2-|-------2---------------------------|
 |--0-------0-3b3.5----------------|---------0--3---------3------------|

 


 


 ~~


 

 
 |------------------------------------|
 |-------------------14-14-(14)-14-14-|
 |--------12---------14-14-(14)-14-14-|
 |---14-------------------------------|
 |------------------------------------|
 |------------------------------------|

 


 |


 

 
 |------------------------------------|
 |------------------------------------|
 |------------------------------------|
 |------2----------2----------------2-|
 |------2----------2----------------2-|
 |-0-------0-3b3.5--------------------|
 |--------------------------------|
 |-14-12--------------------------|
 |-14-12--------------------------|
 |---------14---------------------|
 |-------x------14p12s10-12-12s14-|
 |--------------------------------|

 


 |


 | ~~


 

 
 |--------------------------------|
 |--------------------------------|
 |--------------------------------|
 |-----2---------0----------------|
 |-----2--------------------------|
 |-------0----3--------3----------|

 


 


 ~~~~~~~~~


 

 
 |----------------------------------------|-----------------------15-12--|
 |------12---12--------12-----12----12----|--------0---12---12-12----12--|
 |------12---12--------12-----12----12----|------------------------------|
 |------------------------12-----12----14-|-(14)-------------------------|
 |-(14)-----------------------------------|------------------------------|
 |----------------------------------------|------------------------------|

 


 |


 | ~~


 

 
 |----------------------------------------|------------------------------|
 |----------------------------------------|------------------------------|
 |----------------------------------------|------------------------------|
 |-------2--------------2------------2----|------2--------0--------------|
 |-------2--------------2------------2----|------2-----------------------|
 |---0-----0----3b3.5---------------------|--------0-3----------3--------|
 |---------12--------12------------|-----12-15-15------15b17==|
 |-15b17------15b17-----12-15b17---|--15------------12--------|
 |---------------------------------|--------------------------|
 |---------------------------------|--------------------------|
 |---------------------------------|--------------------------|
 |---------------------------------|--------------------------|

 


 |


 | ~


 

 
 |---------------------------------|--------------------------|
 |---------------------------------|--------------------------|
 |---------------------------------|--------------------------|
 |-------2------------2----------2-|---2--------0-------------|
 |-------2------------2----------2-|---2----------------------|
 |--0-------0--3b3.5---------------|------0--3----3-----------|

 


 


 ~~


 

 
 |-(15)r(15)-15-14-----14---------|----19b21====(19)r(19)-19-18--|
 |------------------------15--15--|----19b21====(19)r(19)--------|
 |--------------------------------|------------------------------|
 |--------------------------------|------------------------------|
 |--------------------------------|------------------------------|
 |--------------------------------|------------------------------|

 


 |


 | ~~~~~~~~~~~~~~~~~~~~~~~~~


 

 
 |--------------------------------|------------------------------|
 |--------------------------------|------------------------------|
 |--------------------------------|------------------------------|
 |--------2-------------2---------|-2---------4--(4)-------5-----|
 |--------2-------------2---------|------------------------------|
 |---0--------0--3b3.5------------|------------------------------|

 


 


 ~~~~~


 

 
 |-17-15----------------|-------------12-12----------------|
 |-------17-17-17b20----|---------------------15-----------|
 |----------------------|-------14b16------------14pb16r14-|
 |----------------------|----------------------------------|
 |----------------------|----------------------------------|
 |----------------------|----------------------------------|

 


 |


 

 
 |--------------0-------|-(0)-0----------------------------|
 |--------------1-------|-(1)-1-----------1----------------|
 |--------------0-------|-(0)-0-------------0-----0--------|
 |--------------2-------|-(2)-2----------------2-----------|
 |--3-------------------|-----3----------------------------|
 |----------------------|----------------------------------|

 


 


 ~~


 

 
 |------------------------|
 |------------------------|
 |---14-12----------------|
 |-----------14-----------|
 |---------------14p12s10-|
 |------------------------|

 


 |


 

 
 |------------------------|
 |------------1-----------|
 |---------0--------------|
 |-------2----------------|
 |-3----------------------|
 |------------------------|

 


 


 ~~


 

 
 |-----------------------------|-----------------------------------------|
 |-----------12---x-12---x-12--|-x-12---x-12--x-----12---x-12-x-x-12---x-|
 |-----------12---x-12---x-12--|-x-12---x-12--x-----12---x-12-x-x-12---x-|
 |-----------------------------|-----------------------------------------|
 |-12s14-----------------------|-----------------------------------------|
 |-----------------------------|-----------------------------------------|

 


 |


 | ~~~~~~~~~~~~~~~~~~


 

 
 |-----------------------------|-----------------------------------------|
 |-----------------------------|-----------------------------------------|
 |-----------------------------|-----------------------------------------|
 |---------5-(5)-------4-------|------2----------------2-------------2---|
 |-----3-----------------------|------2----------------2-------------2---|
 |-----------------------------|-0---------0--3b3.5----------------------|
 |------------------------------------|
 |-12--x-12---x-12-x-x-12-x-x-12s14---|
 |-12--x-12---x-12-x-x-12-x-x-12s14---|
 |------------------------------------|
 |------------------------------------|
 |------------------------------------|

 


 |


 | ~


 

 
 |------------------------------------|
 |------------------------------------|
 |------------------------------------|
 |-----2-------------0----------------|
 |-----2------------------------------|
 |----------0----3--------3-----------|
 |------------------------------12-12---|
 |-14s12---12-12-x-12-----x-12--12-12-x-|
 |-14s12---12-12-x-12-----x-12--------x-|
 |--------------------------------------|
 |--------------------------------------|
 |--------------------------------------|

 


 |


 

 
 |--------------------------------------|
 |--------------------------------------|
 |--------------------------------------|
 |-------2----------------2-------------|
 |-------2----------------2-------------|
 |--0----------0----3b3.5---------------|
 |----------12----------------------------|--------------12---|
 |-------12----15-------------------------|-----------15------|
 |-14b16----------14pb16r(14)--14-12b12.5-|-----12------------|
 |----------------------------------------|-14----------------|
 |----------------------------------------|-------------------|
 |----------------------------------------|-------------------|

 


 |


 | ~~~~~~~~~~~~~~~~~~~~~~~~~~~~~~


 

 
 |----------------------------------------|---------0---------|
 |----------------------------------------|---------1-------1-|
 |----------------------------------------|---------0---------|
 |--2-----------4-(4)-----------5---------|---------2---------|
 |----------------------------------------|--3----------------|
 |----------------------------------------|-------------------|

 


 


 ~~~~~~ ~~


 

 
 |--------------------12-|-15p14h15---15-14--14b15r|
 |-15pb17------15b17-----|-------------------------|
 |-----------------------|-------------------------|
 |-----------------------|-------------------------|
 |-----------------------|-------------------------|
 |-----------------------|-------------------------|

 


 |


 

 
 |-----------1--0--------|-------------0-----------|
 |-(1)-------1--1--------|----------1--1-----------|
 |-----------0--0------0-|--------0----0-----------|
 |-----------------------|--2----------------------|
 |-----------------------|-------------------------|
 |-----------------------|-------------------------|

 


 


 ~~~~ ~~


 

 
 |-(14)-----------12-----|----------------------------|
 |-------------------15--|-15b17--15------------------|
 |-----------------------|-----------14b16-----14-12--|
 |-----------------------|----------------------------|
 |-----------------------|----------------------------|
 |-----------------------|----------------------------|

 


 |


 

 
 |----------2-(2)--------|----------------------------|
 |--------3--------------|----------------------------|
 |------2----------------|----------------------------|
 |---0-------------------|--5---------4----(4)--------|
 |-----------------------|-------------------------7--|
 |-----------------------|----------------------------|

 


 


 [5/4] ~~~~


 

 
 |-------------------------------------------------------|
 |-------------------------------------------------------|
 |-(12)-----14b16r=(14)b16==(14)r==(14)b16==(14)r(14)-12-|
 |-------------------------------------------------------|
 |-------------------------------------------------------|
 |-------------------------------------------------------|

 


 |


 

 
 |-------------------------------------------------------|
 |-------------------------------------------------------|
 |-------------------------------------------------------|
 |-------------------------------------------------------|
 |--(7)-5----4----------------3--4------------5--------6-|
 |-------------------------------------------------------|

 


 


 [4/4] ~~


 

 
 |----------------------|-------------------------|
 |----------------------|--------12---x-12-x-12---|
 |-14p12----------------|--------12---x-12-x-12---|
 |-------14-------------|-(14)--------------------|
 |----------------------|-------------------------|
 |----------------------|-------------------------|

 


 |


 | ~~


 

 
 |----------------------|-------------------------|
 |----------------------|-------------------------|
 |----------------------|-------------------------|
 |-----2----------2---2-|------2------0-----------|
 |-----2----------2---2-|------2------------------|
 |--0-----0-3b3.5-------|---------0-3----3--------|
 |--------------------------------------|-12-----------------------|
 |-14---12-(12)-------------------------|----15--------------------|
 |-14---12-(12)---------12-14b16==(14)r-|-------14b16---14---14-12-|
 |-14---12-(12)-------------------------|--------------------------|
 |--------------------------------------|--------------------------|
 |--------------------------------------|--------------------------|

 


 |


 | ~


 

 
 |--------------------------------------|--------------------------|
 |--------------------------------------|--------------------------|
 |--------------------------------------|--------------------------|
 |----2---------------2-------------2---|-----2----------0---------|
 |----2---------------2-------------2---|-----2--------------------|
 |--0--------0--3b3.5-------------------|--------0----3----3-------|

 


 


 ~~ ~~~~


 

 
 |----------------------------12-|---------------------------17b19==(17)r(17)b19==|
 |-------------------------12----|--15b17==(15)-----(15)r-15----------------------|
 |--------12---------14b16-------|------------------------------------------------|
 |-x-14--------------------------|------------------------------------------------|
 |-------------------------------|------------------------------------------------|
 |-------------------------------|------------------------------------------------|

 


 |


 | ~~


 

 
 |-------------------------------|------------------------------------------------|
 |-------------------------------|------------------------------------------------|
 |-------------------------------|------------------------------------------------|
 |------2----------2-----------2-|-----------2--------0---------------------------|
 |------2----------2-----------2-|-----------2------------------------------------|
 |-0-------0-3b3.5---------------|--------------0-3--------3----------------------|

 


 


 ~~


 

 
 |-(17)b19==(17)r==(17)b19==(17)-------17b19--17b19r17-|-15----------------------|
 |-----------------------------------------------------|----17-17--------17b20===|
 |-----------------------------------------------------|-------------------------|
 |-----------------------------------------------------|-------------------------|
 |-----------------------------------------------------|-------------------------|
 |-----------------------------------------------------|-------------------------|

 


 |


 | ~~~~~~~~~~~~~~~~~~~~~~


 

 
 |-----------------------------------------------------|-------------------------|
 |-----------------------------------------------------|-------------------------|
 |-----------------------------------------------------|-------------------------|
 |---------------2----------------------2--------------|--2-------4-(4)---5------|
 |---------------2----------------------2--------------|-------------------------|
 |------------0---------------0--3b3.5-----------------|-------------------------|

 


 


 ~~~~~ ~~~~ ~~~ ~~~~~


 

 
 |----------------------------|----------------------------------|---------------------------|
 |-(17)r---17b20==(17)--(17)--|-(17)r---17b20==17-17r-----17b20==|=(17)r------17b19==17-17---|
 |----------------------------|----------------------------------|---------------------------|
 |----------------------------|----------------------------------|---------------------------|
 |----------------------------|----------------------------------|---------------------------|
 |----------------------------|----------------------------------|---------------------------|

 


 |


 

 
 |------------------0---------|--(0)--0--------------------------|---------------------------|
 |------------------1---------|--(1)--1------------1-------------|-------------1-------------|
 |------------------0---------|--(0)--0---------------0----0-----|----------0----------------|
 |------------------2---------|--(2)--2-----------------2--------|--------2------------------|
 |---3------------------------|-------3--------------------------|---3-----------------------|
 |----------------------------|----------------------------------|---------------------------|

 


 


 ~~


 

 
 |-----------------------------------|
 |-17r(17)-15h17---------------------|
 |----------------------14p12-14b16==|
 |-----------------------------------|
 |-----------------------------------|
 |-----------------------------------|

 


 |


 | ~~~~~~~~~~~~~~~~~~~~~~~~


 

 
 |-----------------------------------|
 |-----------------------------------|
 |-----------------------------------|
 |---------------5-(5)---4-----------|
 |--3--------------------------------|
 |-----------------------------------|
 |-----------------12-------------------|--------12-----------12------------|
 |-----------x-----12---x-12-x-x-12-x-x-|-12--12----x-x-12----12-12-x-12s14-|
 |-(14)r==14-x----------x-12-x-x-12-x-x-|-12--------x-x-12-------12-x-12s14-|
 |--------------------------------------|-----------------------------------|
 |--------------------------------------|-----------------------------------|
 |--------------------------------------|-----------------------------------|

 


 |


 | ~~


 

 
 |--------------------------------------|-----------------------------------|
 |--------------------------------------|-----------------------------------|
 |--------------------------------------|-----------------------------------|
 |------2-------------2-------------2---|------2------------0---------------|
 |------2-------------2-------------2---|------2----------------------------|
 |---0-----0-3b3.5----------------------|-----------0----3--------3---------|
 |-------------------------------------|----------12--------------------|
 |-14s12---12-12-12-------12-x-x-12----|-------12----12-----------------|
 |-14s12---12-12-12-------12-x-x-12-12-|-14b16----------14b16-14-12b14--|
 |-------------------------------------|--------------------------------|
 |-------------------------------------|--------------------------------|
 |-------------------------------------|--------------------------------|

 


 |


 | ~~~~~~~~~~~~~~~~~~~~~~~~~~~~~


 

 
 |-------------------------------------|--------------------------------|
 |-------------------------------------|--------------------------------|
 |-------------------------------------|--------------------------------|
 |-------2--------------2--------------|--2-----------4-(4)-------5-----|
 |-------2--------------2--------------|--------------------------------|
 |--0----------0--3b3.5----------------|--------------------------------|

 


 


 ~~ ~~~


 

 
 |--------------------|------------------------|
 |--------------------|------------------------|
 |-12----(12)-11------|-------------------11---|
 |---------------12---|-12-----(12)---10-------|
 |--------------------|------------------------|
 |--------------------|------------------------|

 


 |


 

 
 |---------0----------|----------0--0----------|
 |---------1--------1-|-(1)------1--1----------|
 |---------0----------|----------0--0--------0-|
 |---------2----------|------------------------|
 |--3-----------------|------------------------|
 |--------------------|------------------------|

 


 


 ~~ ~~ ~~~~


 

 
 |----------------------|-----------------|----------------------------|
 |----------------------|-----------------|-15b17r==(15)-(15)----------|
 |-11b13r(11)-----------|-----------------|--------------------14b16===|
 |------------10--------|-10h12-----------|----------------------------|
 |----------------------|-----------------|----------------------------|
 |----------------------|-----------------|----------------------------|

 


 |


 | ~~~~~~~~~~~~~~~~~~~~~~~~~


 

 
 |-----------------0----|-------------2---|----------------------------|
 |---------------1-1----|-------------3---|----------------------------|
 |-------------0---0----|-------------2---|----------------------------|
 |--2-------------------|--0------(0)-----|--5--------4---(4)----------|
 |----------------------|-----------------|---------------------7------|
 |----------------------|-----------------|----------------------------|

 


 


 [5/4] ~~


 

 
 |------------------------------------------|
 |------------------------------------------|
 |-(14)-(14)r14p12---14b16====(14)r14p12----|
 |---------------------------------------14-|
 |------------------------------------------|
 |------------------------------------------|

 


 |


 

 
 |------------------------------------------|
 |------------------------------------------|
 |------------------------------------------|
 |------------------------------------------|
 |--(7)---5--------4--------3---4---5--6----|
 |------------------------------------------|

 


 


 [4/4] ~~~~~~~~~~~~~~~~~~~~~~~~~~~~~~~~~


 

 
 |----------------------------|---------------15p12-(12)-15--|
 |-------------------15b17====|=(15)r------------------------|
 |----------------------------|------------------------------|
 |-(14)-----------------------|------------------------------|
 |----------------------------|------------------------------|
 |----------------------------|------------------------------|

 


 |


 | ~~~


 

 
 |----------------------------|------------------------------|
 |----------------------------|------------------------------|
 |----------------------------|------------------------------|
 |------2---------2---------2-|-------2-----0----------------|
 |------2---------2---------2-|-------2----------------------|
 |---0----0-3b3.5-------------|---------0-3----3-------------|
 |-15b17r==15-------------|----15---15---15---15-15b17--|
 |------------------------|-----------------------------|
 |------------------------|-----------------------------|
 |------------------------|-----------------------------|
 |------------------------|-----------------------------|
 |------------------------|-----------------------------|

 


 |


 | ~


 

 
 |------------------------|-----------------------------|
 |------------------------|-----------------------------|
 |------------------------|-----------------------------|
 |-------2----------2---2-|--2------------0-------------|
 |-------2----------2---2-|--2--------------------------|
 |--0-------0-3b3.5-------|-------0----3----3-----------|
 |---15-----------------|--------------|-------------------|---------------*|
 |----------------------|--------------|-------------------|---------------*|
 |----------------------|--------------|-------------------|---------------*|
 |----------------------|--------------|-------------------|---------------*|
 |----------------------|--------------|-------------------|---------------*|
 |----------------------|--------------|-------------------|---------------*|

 


 |


 | ~ ~


 

 
 |----------------------|--------------|-------------------|---------------*|
 |----------------------|--------------|-------------------|---------------*|
 |----------------------|--------------|-------------------|---------------*|
 |------2---------2---2-|--2-----0-----|---2---------2---2-|--2-----0------*|
 |------2---------2---2-|--2-----------|---2---------2---2-|--2------------*|
 |-0------0-3b3.5-------|----0-3---3---|-0---0-3b3.5-------|----0-3---3----*|

 


 


 Tablature Legend


 

 
 ----------------


Important: The song above is NOT stored on the Chordie server. The original song is hosted at www.guitartabs.cc. Chordie works as a search engine and provides on-the-fly formatting. Chordie does not index songs against artists'/composers' will. To remove this song please click here.

This song is displayed as text-only. Transposing and tuning is only available for chordpro-songs.
Rate #5 of 5 versions

Jango Player

Login - add to songbook

SHARE PAGE  



You need to log in to post comments