Guitar Tabs, Chords and Lyrics
Server problems seems to be fixed. Chordie has been experiencing problems with songs disappearing. These issues now seems to be fixed, but still verifying the fix. If you find anything strange, please email admin@chordie.com.


Roman Empire   P.O.D.

 
 e|-------------------------------------------------------|
 B|------------------8-6h8p6------------------------------|
 G|----------------6--------------------------------------|
 D|----------5-7-8----------------------------------------|
 A|--------5----------------------------------------------|
 D|--5h7h8------------------------------------------------|

 


 


 [B)]  


 

 
 e|-------------------------------------------------------|
 B|------------------3/5-6--------------------------------|
 G|----------------2--------------------------------------|
 D|----------0-2-3----------------------------------------|
 A|--------0----------------------------------------------|
 D|--0h2h3------------------------------------------------|

 


 


 II- Second acoustic guitar part


 


 A) Acoustic guitar 1


 


 

 
 e|--5---5---5---6---6---6---3---3---3---5---5---5--------|
 B|-------------------------------------------------------|
 G|----2---2---2---2---2---2---2---2---2---2---2---2------|
 D|-------------------------------------------------------|
 A|-------------------------------------------------------|
 D|-------------------------------------------------------|
 e|--------------3---3---3---------------1---1---1--------|
 B|--3---3---3---------------3---3---3--------------------|
 G|----2---2---2---2---2---2---2---2---2---2---2---2-...*-|
 D|-------------------------------------------------------|
 A|-------------------------------------------------------|
 D|-------------------------------------------------------|

 


 


 *Keep on playing those last notes on second time


 


 B)Acoustic Guitar 2


 


 

 
 e|--13----13----13----15----15----15----12---12---12-----|
 B|-------------------------------------------------------|
 G|-----10----10----10----12----12----12----9----9----9---|
 D|-------------------------------------------------------|
 A|-------------------------------------------------------|
 D|-------------------------------------------------------|
 e|--13----13----13----10---10---10---12---12---12--------|
 B|-------------------------------------------------------|
 G|-----10----10----10----7----7----7----9----9----9------|
 D|-------------------------------------------------------|
 A|-------------------------------------------------------|
 D|-------------------------------------------------------|
 e|--10---10---10---13----13----13---------13-------------|
 B|-------------------------------------------------------|
 G|-----7----7----7----10----10----10-...*-10-------------|
 D|-------------------------------------------------------|
 A|-------------------------------------------------------|
 D|-------------------------------------------------------|

 


 


 *Continue that way till the end of that part


 


 III - Third acoustic part, electric guitar comes in


 


 1) Acoustic Guitar


 


 [A-]  


 

 
 e|-------------------------------------------------------|
 B|----------1----------1---1---1-------------------------|
 G|-------------------------------------------------------|
 D|--0-3p2-0---0-3p2--0---2---2---------------------------|
 A|-------------------------------------------------------|
 D|-------------------------------------------------------|

 


 


 [B-]  


 

 
 e|-------------------------------------------------------|
 B|-------------------------------------------------------|
 G|----------3---------3---3---3--------------------------|
 D|----3p2-------3p2-----2---2----------------------------|
 A|-------------------------------------------------------|
 D|--5-----5---5-----5------------------------------------|

 


 


 [C-]  


 

 
 e|----------1--------------------------------------------|
 B|-------------------------------------------------------|
 G|------1-2---2-1----------------------------------------|
 D|----0-----------0--------------------------------------|
 A|-------------------------------------------------------|
 D|--0----------------------------------------------------|

 


 


 [D-]  


 

 
 e|----------1--------------------------------------------|
 B|-------------------------------------------------------|
 G|------1-2---2-1----------------------------------------|
 D|----0-----------3--------------------------------------|
 A|--1----------------------------------------------------|
 D|-------------------------------------------------------|

 


 


 2)Electric Guitar


 


 E- Electric Guitar 1


 


 

 
 e|--10~-12~-13~--17~-------------------------------------|
 B|-------------------------------------------------------|
 G|-------------------------------------------------------|
 D|-------------------------------------------------------|
 A|-------------------------------------------------------|
 D|-------------------------------------------------------|

 


 


 F- Electric Guitar 2


 


 

 
 e|--1~-3~-5~-8~------------------------------------------|
 B|-------------------------------------------------------|
 G|-------------------------------------------------------|
 D|-------------------------------------------------------|
 A|-------------------------------------------------------|
 D|-------------------------------------------------------|

 


 


 IV - Electric guitar solo


 


 


 A- Electric Guitar


 


 

 
 e|-----------10------------------------------------------|
 B|--8b9-8-8-----11-10------------------------------------|
 G|--------------------12-12-10-9-10/12-12b14-12b15-12b15-|
 D|-------------------------------------------------------|
 A|-------------------------------------------------------|
 D|-------------------------------------------------------|
 e|--------------10h13-10h13b15~-10h13-10h13-13b15~-13b15~|
 B|-------------------------------------------------------|
 G|-12b15-12b13-------------------------------------------|
 D|-------------------------------------------------------|
 A|-------------------------------------------------------|
 D|-------------------------------------------------------|
 e|--13h15-13h15-13h15-13h15b17~-13h15-13h15-13h15b7------|
 B|-------------------------------------------------------|
 G|-------------------------------------------------------|
 D|-------------------------------------------------------|
 A|-------------------------------------------------------|
 D|-------------------------------------------------------|
 e|--13h15-13h15-13h15b7-13h15-13h15-13h15b7-151515...*---|
 B|-------------------------------------------------------|
 G|-------------------------------------------------------|
 D|-------------------------------------------------------|
 A|-------------------------------------------------------|
 D|-------------------------------------------------------|

 


 


 Play that note many times then...


 


 

 
 e|--13h15-13h15-Many-Times-Then-12h13-12h13-Many-Times...|
 B|-------------------------------------------------------|
 G|-------------------------------------------------------|
 D|-------------------------------------------------------|
 A|-------------------------------------------------------|
 D|-------------------------------------------------------|
 e|--10----------10---------------------------------------|
 B|-----11-10-------11-10---------------------------------|
 G|-----------12----------12-12b14-10~-12b14-10~-12b14----|
 D|-------------------------------------------------------|
 A|-------------------------------------------------------|
 D|-------------------------------------------------------|
 e|--10~-12b14-10~-12b14~-10-10-9-------------------------|
 B|-------------------------------------------------------|
 G|-------------------------------------------------------|
 D|-------------------------------------------------------|
 A|-------------------------------------------------------|
 D|-------------------------------------------------------|

 


 


 B- Acoustic Guitar


 


 

 
 e|--333...-----------555...------------------------------|
 B|--333...Many-Times-666...-Many-Times-------------------|
 G|--333...-----------555...------------------------------|
 D|-------------------------------------------------------|
 A|-------------------------------------------------------|
 D|-------------------------------------------------------|

 


 


 C- Acoustic Guitar 2


 


 

 
 e|--6-5........------------------3p15...Many-Times-------|
 B|------8-6....-Many-Times-------------------------------|
 G|----------7..------------------------------------------|
 D|-------------------------------------------------------|
 A|-------------------------------------------------------|
 D|-------------------------------------------------------|


Important: The song above is NOT stored on the Chordie server. The original song is hosted at www.guitartabs.cc. Chordie works as a search engine and provides on-the-fly formatting. Chordie does not index songs against artists'/composers' will. To remove this song please click here.

This song is displayed as text-only. Transposing and tuning is only available for chordpro-songs.
Rate #0 of 2 versions

Jango Player

Login - add to songbook

SHARE PAGE  




You need to log in to post comments