Guitar Tabs, Chords and Lyrics
Login is temporarily disabled for some users. Do not panic. Will be back in an hour or two. DO NOT REREGISTER!!


Lust for Life  Iggy Pop

(iggy pop)
chords
[A]0 [G/A]3 [D/E]2 [G]3 [Dsus4]3 [D]2 [Esus4]0 [E]0
2 0 3 0 3 3 0 0
2 0 2 0 2 2 2 1
2 0 0 0 0 0 2 2
0 0 0 2 # # 2 2

Intro
(drums)
riff 1 riff 2
 
 ------------------------------ -0--------------------- --------------
 ------------------------------ ---3p0----------------- --------------
 ------------------------------ -------2p0------------- --------1h2-1-
 ----7----7-----7------------7- -----------2p0--------- -2--2-2-------
 ------------------------7-9--- ---------------2p0----- --------------
 -5----5-----5----5--7s9------- -------------------3p0- --------------

[(bass)](3X) (1X)
[A]  
 
 ------------------------- -------------------------
 ------------------------- ----------5h7-5----5--7--
 ------------------------- ----------------7--------
 -5--5--5--0-5--5--5-5--0- -5--5--5-----------------

(4X) (4X)(riff 2/3X)
[A] [G/A] [D/E] [E]  
 
 ------------------------- -------------------------
 ------------------------- -------------------------
 ------------------------- -7--7--7----7--7----7----
 -5--5--5--0-5--5--5-5--0- ----------7-------7----7- 

(4X) (riff 1/4X)(3X)
[A] [G/A] [D/E] [E]  
 
 ------------------------- -------------------------
 ------------------------- -------------------------
 ------------------------- -7--7--7----7--7----7----
 -5--5--5--0-5--5--5-5--0- ----------7-------7----7- 

(1X) (1X)
[E] [G]  
 
 ------------------------- --------------------------
 ------------------------- --------------------------
 ------------------------- --------------------------
 ------------------------- -5------------------------
 ------------------------- -----------7--5-----------
 ------------------------- --------------------------
 ------------------------- --------------------------
 ---------------------2-3- -5--5--5----5--5----5-----
 -7--7--7----7--7--------- ----------5-------5----5--
 ----------7-------7------ --------------------------

(1X) (1X)
[G] [Dsus4] [D]  
 
 ------------------------- -10-10--------------------
 ------------------------- -10-10--------------------
 ------------------------- -12-11--------------------
 -5----------------------- -12-12--------------------
 -----------7--5---------- --------------------------
 ------------------------- --------------------------
 -------------------------- --------------------------
 -5--5--5----5--5----5-3-2- --------------------------
 ----------5-------5------- -5--5--5----5--5----5-----
 -------------------------- ----------5-------5----5--

(1X) (4x)
[Dsus4] [D] [Esus4] [E]  
 
 -10-10-------------------- -12-12--------------------
 -10-10-------------------- -12-12--------------------
 -12-11-------------------- -14-13--------------------
 -12-12-------------------- -14-14--------------------
 -------------------------- --------------------------
 -------------------------- --------------------------
 -------------------------- --------------------------
 -------------------------- --------------------------
 -5--5--5----5--5----5--6-- -7--7--7----7--7----7-----
 ----------5-------5------- ----------7-------7----7--

(2X)
[A] [G/A] [D/E]  
 
 -------------------------
 -------------------------
 -------------------------
 -5--5--5--0-5--5--5-5--0-

_____________________
)2.
(2X)
[A] [G/A]I go[D/E]t a
(4x)
[E]lust for life.
(4X
[A]lust for life.[G/A] [D/E]
(4x)
[E]lust for life.
(2X) (back to *)
[A]lust for life.[G/A] [D/E]
outro
(to Fade)

Important: The song above is NOT stored on the Chordie server. The original song is hosted at www.guitartabs.cc. Chordie works as a search engine and provides on-the-fly formatting. Chordie does not index songs against artists'/composers' will. To remove this song please click here.

Text color:
Chord color:
Chord grids: 
Font size:    
Page size: 

A D D/E Dsus4 E Esus4 G
Rate #1 of 5 versions

Jango Player

Login - add to songbook

SHARE PAGE  




You need to log in to post comments