Guitar Tabs, Chords and Lyrics
Major upgrade!! After one year development the new version of Chordie is now online! Please give feedback.


God Save the Queen   Queen

 
 E-----------------------------------------------------------------------------------------
 B-----------------------------------------------------------------------------------------
 G--7-7--0--2-------0-2--4-4-4[5]4--2-0--2--0---0------------------------------------------
 D-------------4------------------------------4------0--2--4--5----------------------------
 A---------------------------------------------------------------5---5---5---5---5-----5---
 E---------------------------------------------------------------------------------3-------
 E-----------------------------------------------------------------------------------------
 B-----------------------------------------------------------------------------------------
 G--------------------------------------------------------------7[9]7-5---4[5]4-2-0--------
 D--5--7--12----9--7--5---5---7-5-4-2-0---------------------------------------------4-4[5]4
 A--------------------------------------3-2-0----3[7]3-5---5-------------------------------
 E--------------------------------------------3--------------------------------------------
 E-----------------------------------------------------------------------------------------
 B-----------------------------------------------------------------------------------------
 G--------0--------------------------------------------------------------------------------
 D--2--4-----------------------------------------------------------------------------------
 A-----------------------------------------------------------------------------------------
 E-----------------------------------------------------------------------------------------

 


 [ Tab from: bttp://www.guitartabs.cc/tabs/q/queen/god_save_tbe_queen_tab.btml ] 


 BLOCK 2 [5 guitars, Left]


 vibrato used here


 

 
 E-----------------------------------------------------------------------------------------
 B-----------------------------------------------------------------------------------------
 G----0-2-4-4--4--4--4--4[5]4-5--5--5--5--5-4--4--5-4-2-0-4---5[7]--5[9]-5-4--2--0---------
 D--5--------------------------------------------------------------------------------------
 A-----------------------------------------------------------------------------------------
 E-----------------------------------------------------------------------------------------

 


 


 BLOCK 3 [3 guitars, rigbt]


 Hold bend and strike notes again


 

 
 E-----------------------14-15--15--15--15----15[17]--[17]--[17]--[17]----15--------19--20-
 B--------------12-15-17------------------------------------------------------19-17--------
 G--------12-14----------------------------------------------------------------------------
 D--12-14----------------------------------------------------------------------------------
 A-----------------------------------------------------------------------------------------
 E-----------------------------------------------------------------------------------------
 E--19--17--15--19---20[22]--20[24]-20-19--17--15------------------------------------------
 B-----------------------------------------------------------------------------------------
 G-----------------------------------------------------------------------------------------
 D-----------------------------------------------------------------------------------------
 A-----------------------------------------------------------------------------------------
 E-----------------------------------------------------------------------------------------

 


 


 BLOCK 4 [3 guitars, centre]


 


 

 
 E-----------------------------------------------------------------------------------------
 B-----------------------------------------------------------------------------------------
 G--7[9]-7-5--4[5]-2-0---------------0-----------------------------------------------------
 D----------------------4[5]-4-2-4---------------------------------------------------------
 A-----------------------------------------------------------------------------------------
 E-----------------------------------------------------------------------------------------


Important: The song above is NOT stored on the Chordie server. The original song is hosted at www.guitartabs.cc. Chordie works as a search engine and provides on-the-fly formatting. Chordie does not index songs against artists'/composers' will. To remove this song please click here.

This song is displayed as text-only. Transposing and tuning is only available for chordpro-songs.
Rate #1 of 1 versions

Login - add to songbook

SHARE PAGE  




You need to log in to post comments