Guitar Tabs, Chords and Lyrics
Update 25:10. 13:00. Site is back up running again. Songbooks are recovered. Woring on getting search back up..


Oceaan  Racoon

Originally with capo on 2.
Intro, Verses, & Outro:
[G] [Em] [G] [Em]  
 
 E|---------------------------------------------------------------|
 B|---------------------------------------------------------------|
 G|-------- 0------0h2--0-----------------------------------------|
 D|-------0---0-------------------------0-------0h2--0------------|
 A|-----2-------------------2h0-----2-----2--------------2h0------|
 E|--3----------------------------3----------3-----------------3--|

Verse 1 (continue playing the above):
[G] Er is ver[Em]rekte veel te [G]zeggen[Em]
[G] en te lie[Em]gen nog veel [G]meer[Em]
[G] Heel veel [Em]bagger bloot te [G]leggen
al doet het [Em]graven nog zon [G]zeer
Ik ben een [Em]eikel maar ik [G]leer
Chorus:
[C] Een [Am]ocea[Em]an [D] om in te [C]vluchten
[Am]nooit jal[Em]oers [D] te hoeven [C]zijn
[Am]Liefde [Em]om [D] je hart te [C]luchten
Am Em D G (play intro part again, into the next verse)
Een oceaan, hoe lekker zou het zijn
Verse 2:
Was er iets waar ik om wenste
voordat de put droog kwam te staan
Dan was het lang zullen we leven
familie waar ik veel van hou
en voor wie ik sterven zou
Bridge (at the end of "sterven zou" you play the following, in the F chord of the bridge):
( Tab from: http://www.guitartabs.cc/tabs/r/racoon/oceaan_crd_ver_2.html )
G Em F ...
 
 E|-----------------------------------|
 B|-----------------------------------|
 G|-----------------------------------|
 D|--------0--------0h2---------0-----|
 A|-----2-----2------------2----------|
 E|--3-----------3--------------------|

[F] Een oc[G]eaan om in te [F]schuilen
nooit all[G]een meer hoeven [F]zijn
Ik heb ges[G]meekt niet meer te [Em]huilen
alsjeb[F]lieft
Het leven [G]jaagt geen angst meer [F]aan
ik heb al [G]zo ver moeten [F]kruipen
Het laatste [G]stuk zal ook wel [Em]gaan
F (continue straight into C after this chord)
tot ik ga staan
[C] Een [Am]ocea[Em]an [D] om in te [C]vluchten
[Am]nooit jal[Em]oers [D] te hoeven [C]zijn
[Am]Liefde [Em]om [D] je hart te [C]luchten
Am Em D C (beginning of chorus repetition)
Een oceaan, alleen van mij
Een[Am] oce[Em]aan [D] om te ver[C]zuipen
Een [Am]dag of [Em]wat [D] een held te [C]zijn
[Am]Laat die [Em]ander [D] nu maar [C]kruipen
Am Em D G (continue into the intro again)
Een oceaan vol tranen is van mij
Outro:
Alleen van mij
[G] [Em] [G] [Em]  
 
 E|---------------------------------------------------------------|
 B|---------------------------------------------------------------|
 G|-------- 0------0h2--0-----------------------2h0---------------|
 D|-------0---0-------------------------0-----------2h0-----------|
 A|-----2-------------------2h0-----2-----2--------------2h0------|
 E|--3----------------------------3----------3-----------------3--|


Important: The song above is NOT stored on the Chordie server. The original song is hosted at www.guitartabs.cc. Chordie works as a search engine and provides on-the-fly formatting. Chordie does not index songs against artists'/composers' will. To remove this song please click here.

Text color:
Chord color:
Chord grids: 
Font size:    
Page size: 

Am C D Em F G
Rate #1 of 4 versions

Jango Player

Login - add to songbook

SHARE PAGE  




You need to log in to post comments