Guitar Tabs, Chords and Lyrics
Major upgrade!! After one year development the new version of Chordie is now online! Please give feedback.


15 Step  Radiohead

15 step (bass) - Radiohead
Tab By misael
E. E. E E E. E. E E E. E. E E E. E. E E
 
 G|------------------------------|------------------------------|
 D|------------------------------|------------------------------|
 A|--2-------------4-------------|--6-------------4-------------|
 E|------4---2--4------4---2--4--|------4---2--4------4---2--4--|

E. E. E E E. E. E E E. E. E E E. E. E E
 
 ------------------------------|------------------------------|
 ------------------------------|------------------------------|
 --2-------------4-------------|--6-------------4-------------|
 ------4---2--4------4---2--4--|------4---2--4------4---2--4--|

E. E. E E E. E. E E E. E. E E E. E. E E
 
 ------------------------------|------------------------------|
 ------------------------------|------------------------------|
 --2-------------4-------------|--6-------------4-------------|
 ------4---2--4------4---2--4--|------4---2--4------4---2--4--|

E. E. E E E. E. E E E. E. E E E. E. E E
 
 ------------------------------|------------------------------|
 ------------------------------|------------------------------|
 --2-------------4-------------|--6-------------4-------------|
 ------4---2--4------4---2--4--|------4---2--4------4---2--4--|

W Q W Q
 
 ------------------------|------------------------|
 ------------------------|------------------------|
 --4----------------L----|--3----------------L----|
 ------------------------|------------------------|

[E] [E] [E] [E] [E] [E] [E] [E] [E] [E] [E] [E] [E] [E] [E] [E] [E] [E] [E] [E]  
 
 --------------------------------|--------------------------------|
 --------------------------------|--------------------------------|
 --------------------------------|--------------------------------|
 --4--4--4--4--4--4--4--4--4--4--|--4--4--4--4--4--4--4--4--4--4--|

[E] [E] [E] [E] [E] [E] [E] [E] [E] [E] [E] [E] [E] [E] [E] [E] [E] [E] [E] [E]  
 
 --------------------------------|--------------------------------|
 --------------------------------|--------------------------------|
 --------------------------------|--------------------------------|
 --4--4--4--4--4--4--4--4--4--4--|--4--4--4--4--4--4--4--4--4--4--|

W Q W Q W Q
 
 ------------------------|------------------------|------------------------|
 ------------------------|------------------------|------------------------|
 ------------------------|------------------------|------------------------|
 --4----------------L----|------------------------|------------------------|

S S S S S S S S S S E. E S S S S S W Q
 
 ---------------------------------------|------------------------|
 ------6-6-4-4--------------------------|------------------------|
 --------------6-6-4-2------------------|------------------------|
 --4-4-----------------4---4--4-2-4-x-2-|--4----------------L----|

H E H E W Q H E H E
 
 --------------------------|------------------------|--------------------------|
 --------------------------|------------------------|--------------------------|
 --6--------L--4--------L--|------------------------|--6--------L--4--------L--|
 --------------------------|--4----------------L----|--------------------------|

W Q
 
 ------------------------||
 ------------------------||
 ------------------------||
 --4----------------L----||

Duration Legend
 
 ---------------

W - whole
H - half
Q - quarter
E - 8th
S - 16th
T - 32nd
X - 64th
. - note dotted
|-n-| - n-tuplets

Important: The song above is NOT stored on the Chordie server. The original song is hosted at www.guitartabs.cc. Chordie works as a search engine and provides on-the-fly formatting. Chordie does not index songs against artists'/composers' will. To remove this song please click here.

Text color:
Chord color:
Chord grids: 
Font size:    
Page size: 

E
Rate #2 of 3 versions

Jango Player

Login - add to songbook

SHARE PAGE  



You need to log in to post comments