Guitar Tabs, Chords and Lyrics
Major upgrade!! After one year development the new version of Chordie is now online! Please give feedback.


Lurgee  Radiohead

Lurgee
Drums
Intro
[E] [E] [E] [E] [E] [E] [E] [E] [E] [E] [E] [E] [E] [E] [E] [E]  
 
 C||--42----42--42--42--42--42--42--42--|--42--42--42--42--42--42--42--42--|
 C||------------38--------------38------|----------38--------------38------|
 C||--36------------36--36--------------|--36----------36--36--------------|
 C||------------------------------------|----------------------------------|
 C||------------------------------------|----------------------------------|
 C||------------------------------------|----------------------------------|

[E] [E] [E] [E] [E] [E] [E] [E] [E] [E] [E] [E] [E] [E] [E] [E]  
 
 --42--42--42--42--42--42--42--42--|--42--42--42--42--42--42--42--42--|
 ----------38--------------38------|----------38--------------38------|
 --36----------36--36--------------|--36----------36--36--------------|
 ----------------------------------|----------------------------------|
 ----------------------------------|----------------------------------|
 ----------------------------------|----------------------------------|

[E] [E] [E] [E] [E] [E] [E] [E] [E] [E] [E] [E] [E] [E] [E] [E]  
 
 --42--42--42--42--42--42--42--42--|--42--42--42--42--42--42--42--42--|
 ----------38--------------38------|----------38--------------38------|
 --36----------36--36--------------|--36----------36--36--------------|
 ----------------------------------|----------------------------------|
 ----------------------------------|----------------------------------|
 ----------------------------------|----------------------------------|

[E] [E] [E] [E] [E] [E] [E] [E] [E] [E] [E] [E] [E] [E] [E] [E]  
 
 --42--42--42--42--42--42--42--42--|--42--42--42--42--42--42--42--42--|
 ----------38--------------38------|----------38--------------38------|
 --36----------36--36--------------|--36----------36--36--------------|
 ----------------------------------|----------------------------------|
 ----------------------------------|----------------------------------|
 ----------------------------------|----------------------------------|

Verse 1
[E] [E] [E] [E] [E] [E] [E] [E] [E] [E] [E] [E] [E] [E] [E] [E]  
 
 --42------42--42--42--42--42--42--42--|--42--42--42--42--42--42--42--42--|
 --------------38--------------38------|----------38--------------38------|
 --36--------------36--36--------------|--36----------36--36--------------|
 --------------------------------------|----------------------------------|
 --------------------------------------|----------------------------------|
 --------------------------------------|----------------------------------|

[E] [E] [E] [E] [E] [E] [E] [E] [E] [E] [E] [E] [E] [E] [E] [E]  
 
 --42--42--42--42--42--42--42--42--|--42--42--42--42--42--42--42--42--|
 ----------38--------------38------|----------38--------------38------|
 --36----------36--36--------------|--36----------36--36--------------|
 ----------------------------------|----------------------------------|
 ----------------------------------|----------------------------------|
 ----------------------------------|----------------------------------|

[E] [E] [E] [E] [E] [E] [E] [E] [E] [E] [E] [E] [E] [E] [E] [E]  
 
 --42--42--42--42--42--42--42--42--|--42--42--42--42--42--42--42--42--|
 ----------38--------------38------|----------38--------------38------|
 --36----------36--36--------------|--36----------36--36--------------|
 ----------------------------------|----------------------------------|
 ----------------------------------|----------------------------------|
 ----------------------------------|----------------------------------|

[E] [E] [E] [E] [E] [E] [E] [E] [E] [E] [E] [E] [E] [E] [E] [E]  
 
 --42--42--42--42--42--42--42--42--|--42--42--42--42--42--42--42--42--|
 ----------38--------------38------|----------38--------------38------|
 --36----------36--36--------------|--36----------36--36--------------|
 ----------------------------------|----------------------------------|
 ----------------------------------|----------------------------------|
 ----------------------------------|----------------------------------|

Chorus
[E] [E] [E] [E] [E] [E] [E] [E] [E] [E] [E] [E] [E] [E] [E] [E]  
 
 --42-----42--42--42--42--42--42--42--|--42--42--42--42--42--42--42--42--|
 -------------38--------------38------|----------38--------------38------|
 --36-------------36--36--------------|--36----------36--36--------------|
 -------------------------------------|----------------------------------|
 -------------------------------------|----------------------------------|
 -------------------------------------|----------------------------------|

[E] [E] [E] [E] [E] [E] [E] [E] [E] [E] [E] [E] [E] [E] [E] [E]  
 
 --42--42--42--42--42--42--42--42--|--42--42--42--42--42--42--42--42--|
 ----------38--------------38------|----------38--------------38------|
 --36----------36--36--------------|--36----------36--36--------------|
 ----------------------------------|----------------------------------|
 ----------------------------------|----------------------------------|
 ----------------------------------|----------------------------------|

[E] [E] [E] [E] [E] [E] [E] [E] [E] [E] [E] [E] [E] [E] [E] [E]  
 
 --42--42--42--42--42--42--42--42--|--42--42--42--42--42--42--42--42--|
 ----------38--------------38------|----------38--------------38------|
 --36----------36--36--------------|--36----------36--36--------------|
 ----------------------------------|----------------------------------|
 ----------------------------------|----------------------------------|
 ----------------------------------|----------------------------------|

[E] [E] [E] [E] [E] [E] [E] [E] [E] [E] [E] [E] [E] [E] [E] [E]  
 
 --42--42--42--42--42--42--42--42--|--42--42--42--42--42--42--42--42--|
 ----------38--------------38------|----------38--------------38------|
 --36----------36--36--------------|--36----------36--36--------------|
 ----------------------------------|----------------------------------|
 ----------------------------------|----------------------------------|
 ----------------------------------|----------------------------------|

Riff
[E] [E] [E] [E] [E] [E] [E] [E] [E] [E] [E] [E] [E] [E] [E] [E]  
 
 --42---42--42--42--42--42--42--42--|--42--42--42--42--42--42--42--42--|
 -----------38--------------38------|----------38--------------38------|
 --36-----------36--36--------------|--36----------36--36--------------|
 -----------------------------------|----------------------------------|
 -----------------------------------|----------------------------------|
 -----------------------------------|----------------------------------|

[E] [E] [E] [E] [E] [E] [E] [E] [E] [E] [E] [E] [E] [E] [E] [E]  
 
 --42--42--42--42--42--42--42--42--|--42--42--42--42--42--42--42--42--|
 ----------38--------------38------|----------38--------------38------|
 --36----------36--36--------------|--36----------36--36--------------|
 ----------------------------------|----------------------------------|
 ----------------------------------|----------------------------------|
 ----------------------------------|----------------------------------|

Verse 2
[E] [E] [E] [E] [E] [E] [E] [E] [E] [E] [E] [E] [E] [E] [E] [E]  
 
 --42------42--42--42--42--42--42--42--|--42--42--42--42--42--42--42--42--|
 --------------38--------------38------|----------38--------------38------|
 --36--------------36--36--------------|--36----------36--36--------------|
 --------------------------------------|----------------------------------|
 --------------------------------------|----------------------------------|
 --------------------------------------|----------------------------------|

[E] [E] [E] [E] [E] [E] [E] [E] [E] [E] [E] [E] [E] [E] [E] [E]  
 
 --42--42--42--42--42--42--42--42--|--42--42--42--42--42--42--42--42--|
 ----------38--------------38------|----------38--------------38------|
 --36----------36--36--------------|--36----------36--36--------------|
 ----------------------------------|----------------------------------|
 ----------------------------------|----------------------------------|
 ----------------------------------|----------------------------------|

[E] [E] [E] [E] [E] [E] [E] [E] [E] [E] [E] [E] [E] [E] [E] [E]  
 
 --42--42--42--42--42--42--42--42--|--42--42--42--42--42--42--42--42--|
 ----------38--------------38------|----------38--------------38------|
 --36----------36--36--------------|--36----------36--36--------------|
 ----------------------------------|----------------------------------|
 ----------------------------------|----------------------------------|
 ----------------------------------|----------------------------------|

[E] [E] [E] [E] [E] [E] [E] [E] [E] [E] [E] [E] [E] [E] [E] [E]  
 
 --42--42--42--42--42--42--42--42--|--42--42--42--42--42--42--42--42--|
 ----------38--------------38------|----------38--------------38------|
 --36----------36--36--------------|--36----------36--36--------------|
 ----------------------------------|----------------------------------|
 ----------------------------------|----------------------------------|
 ----------------------------------|----------------------------------|

Chorus
[E] [E] [E] [E] [E] [E] [E] [E] [E] [E] [E] [E] [E] [E] [E] [E]  
 
 --42-----42--42--42--42--42--42--42--|--42--42--42--42--42--42--42--42--|
 -------------38--------------38------|----------38--------------38------|
 --36-------------36--36--------------|--36----------36--36--------------|
 -------------------------------------|----------------------------------|
 -------------------------------------|----------------------------------|
 -------------------------------------|----------------------------------|

( Tab from: http://www.guitartabs.cc/tabs/r/radiohead/lurgee_drum.html )
[E] [E] [E] [E] [E] [E] [E] [E] [E] [E] [E] [E] [E] [E] [E] [E]  
 
 --42--42--42--42--42--42--42--42--|--42--42--42--42--42--42--42--42--|
 ----------38--------------38------|----------38--------------38------|
 --36----------36--36--------------|--36----------36--36--------------|
 ----------------------------------|----------------------------------|
 ----------------------------------|----------------------------------|
 ----------------------------------|----------------------------------|

[E] [E] [E] [E] [E] [E] [E] [E] [E] [E] [E] [E] [E] [E] [E] [E]  
 
 --42--42--42--42--42--42--42--42--|--42--42--42--42--42--42--42--42--|
 ----------38--------------38------|----------38--------------38------|
 --36----------36--36--------------|--36----------36--36--------------|
 ----------------------------------|----------------------------------|
 ----------------------------------|----------------------------------|
 ----------------------------------|----------------------------------|

[E] [E] [E] [E] [E] [E] [E] [E] [E] [E] [E] [E] [E] [E] [E] [E]  
 
 --42--42--42--42--42--42--42--42--|--42--42--42--42--42--42--42--42--|
 ----------38--------------38------|----------38--------------38------|
 --36----------36--36--------------|--36----------36--36--------------|
 ----------------------------------|----------------------------------|
 ----------------------------------|----------------------------------|
 ----------------------------------|----------------------------------|

Riff
[E] [E] [E] [E] [E] [E] [E] [E] [E] [E] [E] [E] [E] [E] [E] [E]  
 
 --42---42--42--42--42--42--42--42--|--42--42--42--42--42--42--42--42--|
 -----------38--------------38------|----------38--------------38------|
 --36-----------36--36--------------|--36----------36--36--------------|
 -----------------------------------|----------------------------------|
 -----------------------------------|----------------------------------|
 -----------------------------------|----------------------------------|

[E] [E] [E] [E] [E] [E] [E] [E] [E] [E] [E] [E] [E] [E] [E] [E]  
 
 --42--42--42--42--42--42--42--42--|--42--42--42--42--42--42--42--42--|
 ----------38--------------38------|----------38--------------38------|
 --36----------36--36--------------|--36----------36--36--------------|
 ----------------------------------|----------------------------------|
 ----------------------------------|----------------------------------|
 ----------------------------------|----------------------------------|

[E] [E] [E] [E] [E] [E] [E] [E] [E] [E] [E] [E] [E] [E] [E] [E]  
 
 --42--42--42--42--42--42--42--42--|--42--42--42--42--42--42--42--42--|
 ----------38--------------38------|----------38--------------38------|
 --36----------36--36--------------|--36----------36--36--------------|
 ----------------------------------|----------------------------------|
 ----------------------------------|----------------------------------|
 ----------------------------------|----------------------------------|

[E] [E] [E] [E] [E] [E] [E] [E] [E] [E] [E] [E] [E] [E] [E] [E]  
 
 --42--42--42--42--42--42--42--42--|--42--42--42--42--42--42--42--42--|
 ----------38--------------38------|----------38--------------38------|
 --36----------36--36--------------|--36----------36--36--------------|
 ----------------------------------|----------------------------------|
 ----------------------------------|----------------------------------|
 ----------------------------------|----------------------------------|

Solo
[E] [E] [E] [E] [E] [E] [E] [E] [E] [E] [E] [E] [E] [E] [E] [E]  
 
 --42---42--42--42--42--42--42--42--|--42--42--42--42--42--42--42--42--|
 -----------38--------------38------|----------38--------------38------|
 --36-----------36--36--------------|--36----------36--36--------------|
 -----------------------------------|----------------------------------|
 -----------------------------------|----------------------------------|
 -----------------------------------|----------------------------------|

[E] [E] [E] [E] [E] [E] [E] [E] [E] [E] [E] [E] [E] [E] [E] [E]  
 
 --42--42--42--42--42--42--42--42--|--42--42--42--42--42--42--42--42--|
 ----------38--------------38------|----------38--------------38------|
 --36----------36--36--------------|--36----------36--36--------------|
 ----------------------------------|----------------------------------|
 ----------------------------------|----------------------------------|
 ----------------------------------|----------------------------------|

[E] [E] [E] [E] [E] [E] [E] [E] [E] [E] [E] [E] [E] [E] [E] [E]  
 
 --42--42--42--42--42--42--42--42--|--42--42--42--42--42--42--42--42--|
 ----------38--------------38------|----------38--------------38------|
 --36----------36--36--------------|--36----------36--36--------------|
 ----------------------------------|----------------------------------|
 ----------------------------------|----------------------------------|
 ----------------------------------|----------------------------------|

[E] [E] [E] [E] [E] [E] [E] [E] [E] [E] [E] [E] [E] [E] [E] [E]  
 
 --42--42--42--42--42--42--42--42--|--42--42--42--42--42--42--42--42--|
 ----------38--------------38------|----------38--------------38------|
 --36----------36--36--------------|--36----------36--36--------------|
 ----------------------------------|----------------------------------|
 ----------------------------------|----------------------------------|
 ----------------------------------|----------------------------------|

[E] [E] [E] [E] [E] [E] [E] [E] [E] [E] [E] [E] [E] [E] [E] [E]  
 
 --55--42--42--42--42--42--42--42--|--55--42--42--42--42--42--42--42--|
 ----------38--------------38------|----------38--------------38------|
 --36----------36--36--------------|--36----------36--36--------------|
 ----------------------------------|----------------------------------|
 ----------------------------------|----------------------------------|
 ----------------------------------|----------------------------------|

[E] [E] [E] [E] [E] [E] [E] [E] [E] [E] [E] [E] [E] [E] [E] [E]  
 
 --55--42--42--42--42--42--42--42--|--55--42--42--42--42--42--42--42--|
 ----------38--------------38------|----------38--------------38------|
 --36----------36--36--------------|--36----------36--36--------------|
 ----------------------------------|----------------------------------|
 ----------------------------------|----------------------------------|
 ----------------------------------|----------------------------------|

[E] [E] [E] [E] [E] [E] [E] [E] [E] [E] [E] [E] [E] [E] [E] [E]  
 
 --55--42--42--42--42--42--42--42--|--55--42--42--42--42--42--42--42--|
 ----------38--------------38------|----------38--------------38------|
 --36----------36--36--------------|--36----------36--36--------------|
 ----------------------------------|----------------------------------|
 ----------------------------------|----------------------------------|
 ----------------------------------|----------------------------------|

[E] [E] [E] [E] [E] [E] [E] [E] [E] [E] [E] [E] [E] [E] [E] [E]  
 
 --55--42--42--42--42--42--42--42--|--55--42--42--42--42--42--42--42--|
 ----------38--------------38------|----------38--------------38------|
 --36----------36--36--------------|--36----------36--36--------------|
 ----------------------------------|----------------------------------|
 ----------------------------------|----------------------------------|
 ----------------------------------|----------------------------------|

[E] [E] [E] [E] [E] [E] [E] [E] [E] [E] [E] [E] [E] [E] [E] [E]  
 
 --55--42--42--42--42--42--42--42--|--55--42--42--42--42--42--42--42--|
 ----------38--------------38------|----------38--------------38------|
 --36----------36--36--------------|--36----------36--36--------------|
 ----------------------------------|----------------------------------|
 ----------------------------------|----------------------------------|
 ----------------------------------|----------------------------------|

[E] [E] [E] [E] [E] [E] [E] [E] [E] [E] [E] [E] [E] [E] [E] [E]  
 
 --55--42--42--42--42--42--42--42--|--55--42--42--42--42--42--42--42--|
 ----------38--------------38------|----------38--------------38------|
 --36----------36--36--------------|--36----------36--36--------------|
 ----------------------------------|----------------------------------|
 ----------------------------------|----------------------------------|
 ----------------------------------|----------------------------------|

[E] [E] [E] [E] [E] [E] [E] [E] [E] [E] [E] [E] [E] [E] [E] [E]  
 
 --55--42--42--42--42--42--42--42--|--55--42--42--42--42--42--42--42--|
 ----------38--------------38------|----------38--------------38------|
 --36----------36--36--------------|--36----------36--36--------------|
 ----------------------------------|----------------------------------|
 ----------------------------------|----------------------------------|
 ----------------------------------|----------------------------------|

[E] [E] [E] [E] [E] [E] [E] [E] [E] [E] [E] [E] [E] [E] [E] [E]  
 
 --55--42--42--42--42--42--42--42--|--55--42--42--42--42--42--42--42--|
 ----------38--------------38------|----------38--------------38------|
 --36----------36--36--------------|--36----------36--36--------------|
 ----------------------------------|----------------------------------|
 ----------------------------------|----------------------------------|
 ----------------------------------|----------------------------------|

Q H Q W
 
 --55------------------|-------------------||
 ----------------------|-------------------||
 ----------------------|-------------------||
 ----------------------|-------------------||
 ----------------------|-------------------||
 ----------------------|-------------------||

Drums Legend:
 
 ---------------

38...Snare
40...Electric Snare
36...Bass Drum
35...Acoustic Bass Drum
41...Low Floor Tom
43...High Floor Tom
45...Low Tom
47...Low-Mid Tom
48...Hi-Mid Tom
42...Closed Hi Hat
44...Pedal Hi Hat
46...Open Hi Hat
51...Ride Cymbal 1
59...Ride Cymbal 2
49...Crash Cymbal 1
52...Chinese Cymbal
57...Crash Cymbal 2
55...Splash Cymbal
Duration Legend
 
 ---------------

W - whole
H - half
Q - quarter
E - 8th
S - 16th
T - 32nd
X - 64th
. - note dotted
|-n-| - n-tuplets
Tablature Legend
 
 ----------------

L - tied note
x - dead note
g - grace note
(n) - ghost note
> - accentuded note
NH - natural harmonic
AH - artificial harmonic
TH - tapped harmonic
SH - semi harmonic
PH - pitch harmonic
h - hammer on
p - pull off
b - bend
br - bendRelease
pb - preBend
pbr - preBendRelease
brb - bendReleaseBend
\n/ - tremolo bar dip
\n - tremolo bar dive
-/n - tremolo bar Release up
/n\ - tremolo bar inverted dip
/n - tremolo bar return
-\n - tremolo bar Release down
S - shift slide
s - legato slide
/ - slide into from below or out of upwards
\ - slide into from above or out of downwards
~ - vibrato
W - wide vibrato
tr - trill
TP - tremolo picking
T - tapping
S - slap
P - pop
< - fade in
^ - brush up
v - brush down

Important: The song above is NOT stored on the Chordie server. The original song is hosted at www.guitartabs.cc. Chordie works as a search engine and provides on-the-fly formatting. Chordie does not index songs against artists'/composers' will. To remove this song please click here.

Text color:
Chord color:
Chord grids: 
Font size:    
Page size: 

E
Rate #1 of 6 versions

Jango Player

Login - add to songbook

SHARE PAGE  




You need to log in to post comments