Guitar Tabs, Chords and Lyrics
Major upgrade!! After one year development the new version of Chordie is now online! Please give feedback.


Reckoner  Radiohead

 
 --------------------

Reckoner - Radiohead
 
 --------------------

Tabbed by:the piper
Email:jiraoxys7@hotmail.com
Tuning:Standard
READ!!!!!!!!!!!!!!!!!
CHORDS LISTED AT BOTTOM
Chord Riffs:
[C]  
 
 e|--------------------------|
 B|----------------------(10)|
 G|---9----9----9----9-----9-|
 D|--------------------------|
 A|--------------------------|
 E|-8----8----8----8----8----|

[Em]  
 
 e|------------------------------------|
 B|------------------------------------|
 G|----12-----12-----12-----12------12-|
 D|------------------------------------|
 A|------------------------------------|
 E|-12-----12-----12-----12-----12-----|

[D]  
 
 e|------------------------------------|
 B|------------------------------------|
 G|----11-----11-----11(b)--11------11-|
 D|------------------------------------|
 A|------------------------------------|
 E|-10-----10-----10-----10-----10-----|

A (Used once)
 
 e|--------------------------|
 B|--------------------------|
 G|---9----9----9----9-----9-|
 D|--------------------------|
 A|-0----0----0----0----0----|
 E|--------------------------|

INTRO: Guitar starts at 0:09
[C] [Em] [D] [C] [Em] [D] [C] [Em] [C] [Em] [D] [C] [Em] [C]  
VERSE:
[Em]Reckon[D]er [C]ohh [Em]ohh[C]
You [Em]can't take it [D]with [C]you[Em] [C]
[Em]Dancing [D]for your pl[C]eas[Em]ure[C]
BRIDGE:
[Em] [D] [A] [C]  
VERSE II:
[Em]You are [D]not to [C]blame [Em]for[C]
[Em]Bitter[D]sweet distr[C]act[Em]ors[C]
[Em]Dare not [D]speak his [C]na[Em]me[C]
[Em]Dedic[D]ate it to [C]all [Em]you a[C]ll h[Em]uman
[D]bei[C]ngs
CHORUS:
[(G#madd13-)] [G6] 

Important: The song above is NOT stored on the Chordie server. The original song is hosted at www.guitartabs.cc. Chordie works as a search engine and provides on-the-fly formatting. Chordie does not index songs against artists'/composers' will. To remove this song please click here.

Text color:
Chord color:
Chord grids: 
Font size:    
Page size: 

A C D Em G6
Rate #1 of 11 versions

Jango Player

Login - add to songbook

SHARE PAGE  




You need to log in to post comments