Guitar Tabs, Chords and Lyrics
Server problems seems to be fixed. Chordie has been experiencing problems with songs disappearing. These issues now seems to be fixed, but still verifying the fix. If you find anything strange, please email admin@chordie.com.


Feuer frei!   Rammstein

 
 -------------------------|
 -------------------------|
 -------------------------| x8
 -5h6-5h6-5h6-5h6-888-9---|
 -------------------------|
 -------------------------|

 


 chours


 

 
 -------------------------|
 -------------------------|
 -------------------------|
 -5h6-5h6-5h6-5h6-888-9---| x8
 -5h6-5h6-5h6-5h6-888-9---|
 -5h6-5h6-5h6-5h6-888-9---|

 


 verse


 

 
 ------|
 ------|
 ------|

 


 -888-9 x3


 -888-9


 -888-9


 chours


 

 
 --------------------------------------------------------|
 --------------------------------------------------------|
 -------------------------------------------------7-5-3--|
 -5h6-5h6-5h6-5h6-888-9---5h6-5h6-5h6-5h6-888-9---7-5-3--|
 -5h6-5h6-5h6-5h6-888-9---5h6-5h6-5h6-5h6-888-9---5-3-1--|
 -5h6-5h6-5h6-5h6-888-9---5h6-5h6-5h6-5h6-888-9----------|
 ---------------------- ----------|
 ---------------------- ----------|
 ---------------------- x3 ----7-5-3-|
 -5h6-5h6-5h6-5h6-888-9 ----7-5-3-|
 -5h6-5h6-5h6-5h6-888-9 ----5-3-1-|
 -5h6-5h6-5h6-5h6-888-9 ----------|

 


 


 during the piano solo play this 5x, then at the end of the solo-stop playing


 

 
 -----------------------|
 -----------------------|
 -----------------------|
 -5h6-5h6-5h6-5h6-888-9-|
 -5h6-5h6-5h6-5h6-888-9-|
 -5h6-5h6-5h6-5h6-888-9-|

 


 ( Tab from: http://www.guitartabs.cc/tabs/r/rammstein/feuer_frei_tab_ver_11.html )


 after the solo play this 4x


 

 
 -----------------------|
 -----------------------|
 -----------------------|
 -5h6-5h6-5h6-5h6-888-9-|
 -----------------------|
 -----------------------|

 


 then after the 4th time play this 3x


 

 
 -----------------------|
 -----------------------|
 -----------------------|
 -5h6-5h6-5h6-5h6-888-9-|
 -----------------888-9-|
 -----------------888-9-|

 


 then twords the end play


 

 
 --------------------------------------------------------|
 --------------------------------------------------------|
 -------------------------------------------------7-5-3--|
 -5h6-5h6-5h6-5h6-888-9---5h6-5h6-5h6-5h6-888-9---7-5-3--|
 -5h6-5h6-5h6-5h6-888-9---5h6-5h6-5h6-5h6-888-9---5-3-1--|
 -5h6-5h6-5h6-5h6-888-9---5h6-5h6-5h6-5h6-888-9----------|
 -------------------------|
 -------------------------|
 -------------------------|
 -5h6-5h6-5h6-5h6-888-9---| x3
 -5h6-5h6-5h6-5h6-888-9---|
 -5h6-5h6-5h6-5h6-888-9---|
 -------|
 -------|
 -------|

 


 -7-5-3-|


 -7-5-3-|


 -5-3-1-|


 

 
 -------|
 -------------------------|
 -------------------------|
 -------------------------|
 -5h6-5h6-5h6-5h6-888-9---| x3
 -5h6-5h6-5h6-5h6-888-9---|
 -5h6-5h6-5h6-5h6-888-9---|
 -------|
 -------|
 -------|

 


 -7-5-3-| x3


 -7-5-3-|


 -5-3-1-|


 

 
 -------|


Important: The song above is NOT stored on the Chordie server. The original song is hosted at www.guitartabs.cc. Chordie works as a search engine and provides on-the-fly formatting. Chordie does not index songs against artists'/composers' will. To remove this song please click here.

This song is displayed as text-only. Transposing and tuning is only available for chordpro-songs.
Rate #1 of 1 versions

Jango Player

Login - add to songbook

SHARE PAGE  




You need to log in to post comments