Guitar Tabs, Chords and Lyrics
Server problems seems to be fixed. Chordie has been experiencing problems with songs disappearing. These issues now seems to be fixed, but still verifying the fix. If you find anything strange, please email admin@chordie.com.


Herzeleid   Rammstein

 
 e|---------------------------|
 B|---------------------------|
 G|---------------------------|
 D|---------------------------|
 A|--5-----6-----5-------3/---|
 D|-----0-----0-----0-0-------|

 


 


 Richard [00:3100:45]


 

 
 e|-----------------------------------|
 B|-----------------------------------|
 G|---7---8---7-----5-----------------|
 D|---7---8---7-----5-----------------|
 A|---5---6---5-----3-----------------|
 D|-----0---0---0-0-------------------|

 


 |Wollt ihr das Bett in Flammen sehen|


 |wollt ihr in Haut und Haaren unter.|


 |ihr wollt doch auch den Dolch ins..|


 |ihr wollt doch auch das Blut vom...|


 


 Paul [00:4600:49]


 

 
 e|------------------------------------------------------|
 B|------------------------------------------------------|
 G|--10-10-10-10-10-10-10-10-10-10-10-10-10-10-10-10-----|
 D|--10-10-10-10-10-10-10-10-10-10-10-10-10-10-10-10-----|
 A|---8--8--8--8--8--8--8--8--8--8--8--8--8--8--8--8-----|
 D|------------------------------------------------------|

 


 |...............................................Ramm...|


 


 [03:0303:16] 


 

 
 e|------------------------------------|
 B|------------------------------------|
 G|------------------------------------|
 D|----x--xx-3-x-3-x-3-----------------|
 A|----x--xx-3-x-3-x-3-----------------|
 D|----x--xx-3-x-3-x-3-----------------|

 


 |Sex ist ein Schlacht................|


 |Liebe ist Krieg.....................|


 ____________________________________________________________________________


 


 02 - Der Meister


 


 [00:0000:28] 


 

 
 e|-------------------------------|-------------------------------|
 B|-------------------------------|-------------------------------|
 G|---------7h8-------7h8-----7h8-|---------7h8-------7h8-----5h7-|
 D|-0-0-0-0-7h8-0-0-0-7h8-0-0-7h8-|-0-0-0-0-7h8-0-0-0-7h8-0-0-5h7-|
 A|-------------------------------|-------------------------------|
 D|-------------------------------|-------------------------------|

 


 


 [00:2900:36] 


 

 
 e|-----------------------------------------------|
 B|-----------------------------------------------|
 G|-7--x--5--x--7--x--5--x--7--x--5--x--7--x--5/8-|
 D|-7--x--5--x--7--x--5--x--7--x--5--x--7--x--5/8-|
 A|-5--x--3--x--5--x--3--x--5--x--3--x--5--x--3/6-|
 D|-----------------------------------------------|

 


 [00:3700:40] 


 

 
 e|----------------------------------|
 B|----------------------------------|
 G|-9---7---9---7---9---7---9---7/10-|
 D|-9---7---9---7---9---7---9---7/10-|
 A|-7---5---7---5---7---5---7---5/8--|
 D|----------------------------------|

 


 


 [01:1001:39] 


 

 
 e|-------------------------------|-------------------------------|
 B|-------------------------------|-------------------------------|
 G|---------7h8-------7h8-----7h8-|---------7h8-------7h8---------|
 D|-0-0-0-0-7h8-0-0-0-7h8-0-0-7h8-|-0-0-0-0-7h8-0-0-0-7h8---------|
 A|-------------------------------|-------------------------------|
 D|-------------------------------|-------------------------------|

 


 ____________________________________________________________________________


 


 03 - Weißes Fleisch


 


 Flake [00:0000:22]


 

 
 e|--------------------------------------------------------------|
 B|--------------------------------------------------------------|
 G|--------------------------------------------------------------|
 D|--------------------------------------------------------------|
 A|--9-9-9-10-9-9-9-10-9-9-9-10-9-9-9-10-------------------------|
 D|--------------------------------------------------------------|

 


 


 [00:2200:29] 


 

 
 e|----------------|-------------------------------------|
 B|----------------|-------------------------------------|
 G|----------------|------------------------------5^-----|
 D|----------------|------4/5-----4/5-----4/5------------|
 A|----------------|------4/5-----4/5-----4/5------------|
 D|----------------|--4-4-4/5-4-4-4/5-4-4-4/5------------|

 


 |Weißes Fleisch.!|.....................................|


 [00:3000:58] 


 

 
 e|----------------------------------------------------------------------|
 B|----------------------------------------------------------------------|
 G|----------------------------------------|--------------------------5^-|
 D|----------------------------------------|------4/5-----4/5-----4/5----|
 A|----------------------------------------|------4/5-----4/5-----4/5----|
 D|----------------------------------------|--4-4-4/5-4-4-4/5-4-4-4/5----|

 


 |Du auf dem Schulhof ich zum Töten bereit|


 


 [02:0202:12] 


 

 
 e|-----------------------------------------------|
 B|-----------------------------------------------|
 G|-----------------------------------------------|
 D|-0-----7--5-|-2----------2/7-|-5---------------|
 A|-0-----7--5-|-2----------2/7-|-5---------------|
 D|-0-----7--5-|-2----------2/7-|-5---------------|

 


 


 Richard [02:1702:31]


 

 
 e|-------------------------------------------|
 B|--17b-17b-17b-17-14-17b-17b-17b-17p14------|
 G|--------------------------------------16---|
 D|-------------------------------------------|
 A|-------------------------------------------|
 D|-------------------------------------------|
 e|--------------------------------------17b---|
 B|--17b-17b-17b-17-14-17b-17b-17b-17p14-------|
 G|--------------------------------------------|
 D|--------------------------------------------|
 A|--------------------------------------------|
 D|--------------------------------------------|
 e|-------------------------------------------|
 B|--17b-17b-17b-17-14-17b-17b-17b-17p14------|
 G|--------------------------------------16---|
 D|-------------------------------------------|
 A|-------------------------------------------|
 D|-------------------------------------------|
 e|--17p14-17p14--------------------------------|
 B|--------------17p14-17p14-----14-------------|
 G|---------------------------16----16-14-16b---|
 D|---------------------------------------------|
 A|---------------------------------------------|
 D|---------------------------------------------|
 e|----------------------------------------------|
 B|----------------------------------------------|
 G|--16p14-16p14---------------------------------|
 D|--------------16p14-16p14------14-------------|
 A|----------------------------16----16-14-16b---|
 D|----------------------------------------------|

 


 


 Paul [02:1702:31]


 

 
 e|------------------------------------|
 B|------------------------------------|
 G|------------------------------------|
 D|------------------------------------|
 A|--2-4-5-4-2-4-5-4-2-4-5-4-2-4-5-4---|
 D|--2-4-5-4-2-4-5-4-2-4-5-4-2-4-5-4---|
 e|------------------------------|
 B|------------------------------|
 G|------------------------------|
 D|------------------------------|
 A|--3-4-3-4-3-4-3-4-3-4-3-4-3---|
 D|--3-4-3-4-3-4-3-4-3-4-3-4-3---|

 


 ____________________________________________________________________________


 


 04 - Asche zu Asche


 


 [Main] 


 

 
 e|------------------------------------------------------|
 B|------------------------------------------------------|
 G|------------------------------------------------------|
 D|------------------------------------------------------|
 A|--5p-----0-0--7p-----0-0--8p-----0--7p-----0--5p------|
 E|--3p-[0]-0-0--5p-[0]-0-0--6p-[0]-0--5p-[0]-0--3p-[0]--|

 


 


 [Bridge] 


 

 
 e|---------------------------|------------------|
 B|---------------------------|------------------|
 G|---------------------------|------------------|
 D|---------------------------|------------------|
 A|--555-x-555-x-555-x-555-x--|------------------|
 E|--333-x-333-x-333-x-333-x--|------------------|

 


 |...........................|warmer körper.....|


 ____________________________________________________________________________


 


 05 - Seemann


 


 [Bass] 


 

 
 G|---------18-------------16-------------14--------------13------|
 D|-----13------13-----13------13-----13-------13-----13------13--|
 A|--0--------------0--------------0---------------0--------------|
 E|---------------------------------------------------------------|

 


 |Komm............................................in.............|


 


 

 
 G|---------11------------11------------13-------------13------|
 D|------9------9------9------9------9------9------10------10--|
 A|--11------------11------------11------------11--------------|
 E|------------------------------------------------------------|

 


 |mein Boot...................................................|


 


 

 
 G|-------------------------------------------------------------|
 D|---------14-------------13-------------11-------------9------|
 A|-----11------11-----11------11-----11------11-----11-----11--|
 E|--9--------------9--------------9--------------9-------------|

 


 |ein Sturm kommt auf.............und es wird..................|


 


 

 
 G|--------------------------------------------------------------|
 D|---------11-------------10-------------11-------------11------|
 A|-----11------11-----11------11-----11------11-----11------11--|
 E|--9--------------9--------------9--------------9--------------|

 


 |Nacht.........................................................|


 


 [Cborus] 


 

 
 e|----------------------------------------------------------------|
 B|----------------------------------------------------------------|
 G|----------------------------------------------------------------|
 D|--11--------------------|-9----------|-7----------|-6-----------|
 A|--11--------------------|-9----------|-7----------|-6-----------|
 D|--11--------------------|-9----------|-7----------|-6-----------|

 


 ____________________________________________________________________________


 


 06 - Du riechst so gut


 


 [Intro] 


 

 
 e|------------------------------------|------------------------------------|
 B|---3-4---3-4---3-4---3---3-4---3---3|---3-4---3-4----3-4---3---3-4---3---|
 G|-0-----0-----0-----0---0-----0---0--|-0-----0-----0------0---0-----0-----|
 D|------------------------------------|------------------------------------|
 A|------------------------------------|------------------------------------|
 D|------------------------------------|------------------------------------|
 e|------------------------------------|------------------------------------|
 B|---3-4---3-4----3-4---3---3-4---3---|---3-4---3-4---3-4---3---3-4--------|
 G|-0-----0-----0------0---0-----0-----|-0-----0-----0-----0---0------------|
 D|------------------------------------|------------------------------------|
 A|------------------------------------|------------------------------------|
 D|------------------------------------|------------------------------------|

 


 


 [Main] 


 

 
 e|-----------------------------------------------------------------|
 B|------------------------------------------------------------10^--|
 G|-----------------------------------------------------------------|
 D|-----------------------------------------------------------------|
 A|--0-1h--0-1h--0-1h--1--0-1h--0-x-0-1h--0-1h--0-1h--1--0-1h-------|
 D|--0-1h--0-1h--0-1h--1--0-1h--0-x-0-1h--0-1h--0-1h--1--0-1h-------|

 


 [00:2700:31] 


 

 
 e|----------------------------------------------------------------|
 B|-----------------------------------------------------------10^--|
 G|----------------------------------------------------------------|
 D|----------------------------------------------------------------|
 A|--1--1--0-1h--0-1h--1--0-1h--0-x-0-1h--0-1h--0-1h--1--0-1h------|
 D|--1--1--0-1h--0-1h--1--0-1h--0-x-0-1h--0-1h--0-1h--1--0-1h------|

 


 


 [Cborus] 


 

 
 e|--------------|-------------|--------------|-----------------------|
 B|--------------|-------------|--------------|-----------------------|
 G|--5----10-----|-------------|--5----10-----|-----------------------|
 D|--5----10-----|--0----------|--5----10-----|--0-----'1h-1-0-1h-0-x-|
 A|--3----8------|--0----------|--3----8------|--0-----'1h-1-0-1h-0-x-|
 D|--------------|--0----------|--------------|--0-----'1h-1-0-1h-0-x-|

 


 |Du riechst so.|guuuuuuuut...|Du ri..so gut.|İch ger 'hinter her....|


 

 
 e|--------------|-------------|---------------------|------|
 B|--------------|-------------|---------------------|------|
 G|--5----10-----|-------------|---------------------|------|
 D|--5----10-----|--0----------|--3-----1-----0------|------|
 A|--3----8------|--0----------|--3-----1-----0------|------|
 D|--------------|--0----------|--3-----1-----0------|------|

 


 |Du riechst so.|guuuuuuuut...|Gleich hab ich dich..|


 


 [Solo] 


 

 
 e|-------------------------------------------------------|
 B|-------------------------------------------------------|
 G|--12p-0-12p-0-12p-0-12p-0-11p-0-11p-0-11p-0-12p-0------|
 D|-------------------------------------------------------|
 A|-------------------------------------------------------|
 D|-------------------------------------------------------|
 e|-------------------------------------------------------|
 B|-------------------------------------------------------|
 G|-------------------------------------------------------|
 D|--12p-0-12p-0-12p-0-12p-0-14p-0-12p-0-14p-0-12p-0------|
 A|-------------------------------------------------------|
 D|-------------------------------------------------------|

 


 ____________________________________________________________________________


 


 07 - Das alte Leid


 


 [Intro] 


 

 
 e|-------------------------------------|
 B|-------------------------------------|
 G|-------------------------------------|
 D|--2-4h--2-4h--2-4h--2-4/7--7--2------|
 A|--2-4h--2-4h--2-4h--2-4/7--7--2------|
 D|--2-4h--2-4h--2-4h--2-4/7--7--2------|

 


 


 [Main] 


 

 
 e|--------------------------------------------------------|
 B|--------------------------------------------------------|
 G|--------------------------------------------------------|
 D|--22-x-2222-x-22-x-2222-x-22-x-2222-x-22-x-2222-x--5^---|
 A|--22-x-2222-x-22-x-2222-x-22-x-2222-x-22-x-2222-x-------|
 D|--22-x-2222-x-22-x-2222-x-22-x-2222-x-22-x-2222-x-------|
 e|--------------------------------------------------------|
 B|--------------------------------------------------------|
 G|--------------------------------------------------------|
 D|--22-x-2222-x-22-x-2222-x-22-x-2222-x-22-x-2222-x-------|
 A|--22-x-2222-x-22-x-2222-x-22-x-2222-x-22-x-2222-x-------|
 D|--22-x-2222-x-22-x-2222-x-22-x-2222-x-22-x-2222-x-------|

 


 


 [Bridge] 


 

 
 e|--------------------------------------------------|----------------------|
 B|--------------------------------------------------|----------------------|
 G|--------------------------------------------------|----------------------|
 D|--22-x-2222-x-22-x-2222-x-22-x-2222-x-22-x-2222-x---2--------------------|
 A|--22-x-2222-x-22-x-2222-x-22-x-2222-x-22-x-2222-x---2--------------------|
 D|--22-x-2222-x-22-x-2222-x-22-x-2222-x-22-x-2222-x---2--------------------|

 


 |weiss ich endlich ....|


 


 [Dark Seconds] 


 

 
 e|--------------------------------------------------------------------|
 B|--------------------------------------------------------------------|
 G|--------------------------------------------------------------------|
 D|-22-x-22-x-22-x-|-22-x-22-x-22-x-|-22-x-22-x-22-x-|-22-x-22-x-2~----|
 A|-22-x-22-x-22-x-|-22-x-22-x-22-x-|-22-x-22-x-22-x-|-22-x-22-x-2~----|
 D|-22-x-22-x-22-x-|-22-x-22-x-22-x-|-22-x-22-x-22-x-|-22-x-22-x-2~----|
 e|--------------|
 B|--------------|
 G|--------------|
 D|--2-----------|
 A|--2-----------|
 D|--2-----------|

 


 ____________________________________________________________________________


 


 08 - Heirate Mich


 


 [Main] 


 

 
 e|--------------------------------|
 B|--------------------------------|
 G|--------------------------------|
 D|--2-x-2-x-2-x-2-x--5\4-2--4/5---|
 A|--2-x-2-x-2-x-2-x--5\4-2--4/5---|
 D|--2-x-2-x-2-x-2-x--5\4-2--4/3---|

 


 [Cborus] 


 

 
 e|--------------------------------------------|
 B|--------------------------------------------|
 G|--------------------------------------------|
 D|--9----x---10----9---x-x-10----9-x-x-10-----|
 A|--9----x---10----9---x-x-10----9-x-x-10-----|
 D|--9----x---10----9---x-x-10----9-x-x-10-----|

 


 |Dort bei den Glocken verbring ich die Nacht.|


 |dort zwischen Schnecken ein einsames Tier...|


 


 

 
 e|------------------------------------|-------------------|
 B|------------------------------------|-------------------|
 G|------------------------------------|-------------------|
 D|--11-x-11-x-11-x-11--12-------------|--11--10-----------|
 A|--11-x-11-x-11-x-11--12-------------|--11--10-----------|
 D|--11-x-11-x-11-x-11--12-------------|--11--10-----------|

 


 |tagsüber lauf ich der Nacht hinte...|...................|


 |zum zweitenmal......................|entkommst du mir...|


 


 [Solo] 


 

 
 e|-5*-------------------------------------------------------|
 B|-----7*---------------------------------------------------|
 G|----------6^^7^6--6h7p6-----------------------6-7-6^^-----|
 D|------------------------7-----------------7-9---------7-9-|
 A|--------------------------7-9-7-10-9-9-10-----------------|
 D|----------------------------------------------------------|
 e|----------12-11-9----9---------------------------------|
 B|-9-12p9-12--------12-----------------------------------|
 G|-----------------------11---13-------13-------13-------|
 D|-------------------------------11-11----11-11----11-11-|
 A|-------------------------------------------------------|
 D|-------------------------------------------------------|
 e|-------------------------------------------|
 B|-14-13h14-12h14-14p12----------------------|
 G|----------------------13-13h14p13-13/16~~~-|
 D|-------------------------------------------|
 A|-------------------------------------------|
 D|-------------------------------------------|

 


 ____________________________________________________________________________


 


 09 - Herzeleid


 


 [Main] 


 

 
 e|-------|----------------------|
 B|-------|----------------------|
 G|-------|----------------------|
 D|-------|----------------------|
 A|-------|4-4-x-4-4-4-4-4-------|
 D|-------|4-5-x-4-4-5-5-4-------|

 


 |Be.....|


 |wahret.|


 |ei.....|


 |nander.|


 |vor....|


 |Herze..|


 |leid...|


 


 [Cborus] 


 

 
 e|--------------------------|
 B|--------------------------|
 G|--------------------------|
 D|--2-4----4----5-5-4-------|
 A|--2-4--2-4--4-5-5-4-------|
 D|--2-4--2-4--2-5-5-4-4-4-4-|

 


 |Herzeleid.................|


 


 [Bridge] 


 

 
 e|---------------------------------|
 B|---------------------------------|
 G|---------------------------------|
 D|---------------------------------|
 A|---------------------------------|
 D|-2h4-4-4-5p4-2h4-2h4-4-4-4-4-4-4-|
 e|---------------------------------|
 B|---------------------------------|
 G|---------------------------------|
 D|---------------------------------|
 A|---------------------------------|
 D|-5h7-7-7-8p7-5h7-5h7-7-7-7-7-7-7-|

 


 ____________________________________________________________________________


 


 10 - Laichzeit


 


 [Main] 


 

 
 e|----------------------------------------------|
 B|----------------------------------------------|
 G|----------------------------------------------|
 D|--222-x-222-x-2x--2x--5x--4x------------------|
 A|--222-x-222-x-2x--2x--5x--4x------------------|
 D|--222-x-222-x-2x--2x--5x--4x------------------|
 e|----------------------------------------------|
 B|----------------------------------------------|
 G|----------------------------------------------|
 D|--222-x-222-x-2x--2/5/4-----------------------|
 A|--222-x-222-x-2x--2/5/4-----------------------|
 D|--222-x-222-x-2x--2/5/4-----------------------|

 


 


 [Bridge] 


 

 
 e|--------------------------------------------------------------------|
 B|--------------------------------------------------------------------|
 G|--------------------------------------------------------------------|
 D|--5--5--5--5--8-7--5--5--5--5--8--7-|-5--5--5--5--8-7--5--5--4/5-x--|
 A|--5--5--5--5--8-7--5--5--5--5--8--7-|-5--5--5--5--8-7--5--5--4/5-x--|
 D|--5--5--5--5--8-7--5--5--5--5--8--7-|-5--5--5--5--8-7--5--5--4/5-x--|
 e|-------------------------------------------------------------------------|
 B|-------------------------------------------------------------------------|
 G|-------------------------------------------------------------------------|
 D|-5--5--5--5--8-7--5--5--5--5--8--7-|-5--5--5--5--8-55555555-5x-5x-5x-5x--|
 A|-5--5--5--5--8-7--5--5--5--5--8--7-|-5--5--5--5--8-55555555-5x-5x-5x-5x--|
 D|-5--5--5--5--8-7--5--5--5--5--8--7-|-5--5--5--5--8-55555555-5x-5x-5x-5x--|

 


 ____________________________________________________________________________


 


 11 - Rammstein


 


 [Mortal Intro] 


 

 
 e|------------------------------------|
 B|------------------------------------|
 G|------------------------------------|
 D|------------------------------------|
 A|--7----------------8----------------|
 E|--------0-----0---------------------|

 


 


 [Main] 


 

 
 e|----------------------------------------------------|
 B|----------------------------------------------------|
 G|----------------------------------------------------|
 D|--------9/10----------9/10----------9/10-x--10/9----|
 A|--------7/8-----------7/8-----------7/8--x---8/7----|
 E|--0--0----------0--0----------0--0-------x----------|

 


 |Rammstein...........................................|


 |Ein Mensch brennt...................................|


 |....................................................|


 


 [Bridge] 


 

 
 e|------------------|------------------|
 B|------------------|------------------|
 G|------------------|------------------|
 D|------------------|------------------|
 A|--3-2-x-----------|--222222-5--2--x--|
 E|--1-0-x-----------|--000000-3--0--x--|

 


 


 [Solo] 


 [part I] 


 

 
 e|--7p0-9p0-10p0-9p0-7p0-9p0-10p0-9p0-7p0-9p0-10p0-9p0-7p0-9p0-7p0-9p0-|
 B|---------------------------------------------------------------------|
 G|---------------------------------------------------------------------|
 D|---------------------------------------------------------------------|
 A|---------------------------------------------------------------------|
 E|---------------------------------------------------------------------|
 (-----------------------------------------------------------[1x]------)
 e|--7p0-9p0-10p0-9p0-7p0-9p0-10p0-9p0----------------------------------|
 B|------------------------------------0h7-8p0-10p0-8p0-0-7/8\7vvvvvvvvv|
 G|---------------------------------------------------------------------|
 D|---------------------------------------------------------------------|
 A|---------------------------------------------------------------------|
 E|---------------------------------------------------------------------|
 e|----------------------------|--------------------------------------|

 


 B|vvvvvvvvvvvvvvvvvvvvvvvvvv7/8\7vvvvvvvvvvvvvvvvvvvvvvvvvvvvvvvvvvvv|


 

 
 G|----------------------------|--------------------------------------|
 D|----------------------------|--------------------------------------|
 A|----------------------------|--------------------------------------|
 E|----------------------------|--------------------------------------|

 


 


 [part II] 


 

 
 e|---------------------------------|---------------------------------------|
 B|5-5-5-5-5-5-5-5-5-5-5-5-8-8-3-3-3/5-5-5-5-5-5-5-5-10-10-10-10-13-13-13-13|
 G|---------------------------------|---------------------------------------|
 D|---------------------------------|---------------------------------------|
 A|---------------------------------|---------------------------------------|
 E|---------------------------------|---------------------------------------|
 e|-----------------------------------|-------------------------------|
 B|--5-5-5-5-5-5-5-5-5-5-5-5-8-8-3-3-3/5-5-5-5-5-5-5-5-0-0-0-0-1-1-1-1|
 G|-----------------------------------|-------------------------------|
 D|-----------------------------------|-------------------------------|
 A|-----------------------------------|-------------------------------|
 E|-----------------------------------|-------------------------------|
 e|---------------------------------|---------------------------------------|
 B|5-5-5-5-5-5-5-5-5-5-5-5-8-8-3-3-3/5-5-5-5-5-5-5-5-10-10-10-10-13-13-13-13|
 G|---------------------------------|---------------------------------------|
 D|---------------------------------|---------------------------------------|
 A|---------------------------------|---------------------------------------|
 E|---------------------------------|---------------------------------------|
 e|-----------------------------------|-------------------------------|
 B|--5-5-5-5-5-5-5-5-5-5-5-5-8-8-3-3-3/5-5-5-5-5-5-5-5-0-0-0-0-1-1-1-1|
 G|-----------------------------------|-------------------------------|
 D|-----------------------------------|-------------------------------|
 A|-----------------------------------|-------------------------------|
 E|-----------------------------------|-------------------------------|


Important: The song above is NOT stored on the Chordie server. The original song is hosted at www.guitartabs.cc. Chordie works as a search engine and provides on-the-fly formatting. Chordie does not index songs against artists'/composers' will. To remove this song please click here.

This song is displayed as text-only. Transposing and tuning is only available for chordpro-songs.
Rate #1 of 3 versions

Jango Player

Login - add to songbook

SHARE PAGE  



You need to log in to post comments