Guitar Tabs, Chords and Lyrics
Server problems seems to be fixed. Chordie has been experiencing problems with songs disappearing. These issues now seems to be fixed, but still verifying the fix. If you find anything strange, please email admin@chordie.com.


Links 2-3-4  Rammstein

LINKS 2,3,4
As recorded by Rammstein
(From the 2001 Album MUTTER)
Gtr I (E A D G B E) - 'Guitar 1'
Gtr II (E A D G B E) - 'Guitar 2'
Intro
Moderate Rock Q=130
[4/4] Gtr I
Wx4
 
 |--------|
 |--------|
 |--------|
 |--------|
 |--------|
 |--------|

E E [E5]E E E E E E E E E S S [G5] E [A5] E E [Bb5] E
 
 |-----------------|----------------------|
 |-----------------|----------------------|
 |-----9-------9---|-----9-----12-14---15-|
 |-----9-------9---|-----9-----12-14---15-|
 |-----7-------7---|-----7-----10-12---13-|
 |-0-0---0-0-0---0-|-0-0---0-0-------0----|

|
| Gtr II
| E E E E E E E E E E E S S E E E E
 
 |-----------------|----------------------|
 |-----------------|----------------------|
 |-----------------|----------------------|
 |-----2-------2---|-----2------5--7----8-|
 |-----2-------2---|-----2------5--7----8-|
 |-0-0-0-0-0-0-0-0-|-0-0-0-0-0--3--5-0--6-|

E E [E5]E E E E E E E E E S S [G5] E [A5] E E [Bb5] E
 
 |-----------------|------------------------|
 |-----------------|------------------------|
 |-----9-------9---|-----9-----12-14---15---|
 |-----9-------9---|-----9-----12-14---15---|
 |-----7-------7---|-----7-----10-12---13---|
 |-0-0---0-0-0---0-|-0-0---0-0-------0------|

|
| E E E E E E E E E E E S S E E E E
 
 |-----------------|------------------------|
 |-----------------|------------------------|
 |-----------------|------------------------|
 |-----2-------2---|-----2------5--7----8---|
 |-----2-------2---|-----2------5--7----8---|
 |-0-0-0-0-0-0-0-0-|-0-0-0-0-0--3--5-0--6---|

E E [E5]E E E E E E E E E S S [G5] E [A5] E E [Bb5] E
 
 |-----------------|----------------------|
 |-----------------|----------------------|
 |-----9-------9---|-----9-----12-14---15-|
 |-----9-------9---|-----9-----12-14---15-|
 |-----7-------7---|-----7-----10-12---13-|
 |-0-0---0-0-0---0-|-0-0---0-0-------0----|

|
| E E E E E E E E E E E S S E E E E
 
 |-----------------|----------------------|
 |-----------------|----------------------|
 |-----------------|----------------------|
 |-----2-------2---|-----2------5--7----8-|
 |-----2-------2---|-----2------5--7----8-|
 |-0-0-0-0-0-0-0-0-|-0-0-0-0-0--3--5-0--6-|

E E [E5]E E E E E E E E E S S S S [Bb5] E E E
 
 |-----------------|-------------------------|
 |-----------------|-------------------------|
 |-----9-------9---|-----9---------15-15-15--|
 |-----9-------9---|-----9---------15-15-15--|
 |-----7-------7---|-----7---------13-13-13--|
 |-0-0---0-0-0---0-|-0-0---0-0-0-0-----------|

|
| E E E E E E E E E E E S S S S E E E
 
 |-----------------|-------------------------|
 |-----------------|-------------------------|
 |-----------------|-------------------------|
 |-----2-------2---|-----2----------8--8--8--|
 |-----2-------2---|-----2----------8--8--8--|
 |-0-0-0-0-0-0-0-0-|-0-0-0-0-0-0-0--6--6--6--|

E E [E5]E E E E E E E E E S S [G5] E [A5] E E [Bb5] E
 
 |-----------------|----------------------|
 |-----------------|----------------------|
 |-----9-------9---|-----9-----12-14---15-|
 |-----9-------9---|-----9-----12-14---15-|
 |-----7-------7---|-----7-----10-12---13-|
 |-0-0---0-0-0---0-|-0-0---0-0-------0----|

|
| E E E E E E E E E E E S S E E E E
 
 |-----------------|----------------------|
 |-----------------|----------------------|
 |-----------------|----------------------|
 |-----2-------2---|-----2------5--7----8-|
 |-----2-------2---|-----2------5--7----8-|
 |-0-0-0-0-0-0-0-0-|-0-0-0-0-0--3--5-0--6-|

E E [E5]E E E E E E E E E S S [G5] E [A5] E E [Bb5] E
 
 |-----------------|------------------------||
 |-----------------|------------------------||
 |-----9-------9---|-----9-----12-14---15---||
 |-----9-------9---|-----9-----12-14---15---||
 |-----7-------7---|-----7-----10-12---13---||
 |-0-0---0-0-0---0-|-0-0---0-0-------0------||

|
| E E E E E E E E E E E S S E E E E
 
 |-----------------|------------------------||
 |-----------------|------------------------||
 |-----------------|------------------------||
 |-----2-------2---|-----2------5--7----8---||
 |-----2-------2---|-----2------5--7----8---||
 |-0-0-0-0-0-0-0-0-|-0-0-0-0-0--3--5-0--6---||

Verse
N.C.
Gtrs I, II
E E E E E E E E E E E E E E E E 6x
 
 ||------------------|---------------------||
 ||o-----------------|--------------------o||
 ||------9-------9---|-----9---------------||
 ||------------------|---------------------||
 ||o-7-7---7-7-7---7-|-7-7---7-10-12-7-13-o||
 ||------------------|---------------------||

Chorus
E E [E5]E E E E E E E E E S S [G5] E [A5] E E [Bb5] E
 
 |-----------------|----------------------|
 |-----------------|----------------------|
 |-----9-------9---|-----9-----12-14---15-|
 |-----9-------9---|-----9-----12-14---15-|
 |-----7-------7---|-----7-----10-12---13-|
 |-0-0---0-0-0---0-|-0-0---0-0-------0----|

|
| Gtr II
| E E E E E E E E E E E S S E E E E
 
 |-----------------|----------------------|
 |-----------------|----------------------|
 |-----------------|----------------------|
 |-----2-------2---|-----2------5--7----8-|
 |-----2-------2---|-----2------5--7----8-|
 |-0-0-0-0-0-0-0-0-|-0-0-0-0-0--3--5-0--6-|

E E [E5]E E E E E E E E E S S [G5] E [A5] E E [Bb5] E
 
 |-----------------|------------------------|
 |-----------------|------------------------|
 |-----9-------9---|-----9-----12-14---15---|
 |-----9-------9---|-----9-----12-14---15---|
 |-----7-------7---|-----7-----10-12---13---|
 |-0-0---0-0-0---0-|-0-0---0-0-------0------|

|
| E E E E E E E E E E E S S E E E E
 
 |-----------------|------------------------|
 |-----------------|------------------------|
 |-----------------|------------------------|
 |-----2-------2---|-----2------5--7----8---|
 |-----2-------2---|-----2------5--7----8---|
 |-0-0-0-0-0-0-0-0-|-0-0-0-0-0--3--5-0--6---|

E E [E5]E E E E E E E E E S S [G5] E [A5] E E [Bb5] E
 
 |-----------------|----------------------|
 |-----------------|----------------------|
 |-----9-------9---|-----9-----12-14---15-|
 |-----9-------9---|-----9-----12-14---15-|
 |-----7-------7---|-----7-----10-12---13-|
 |-0-0---0-0-0---0-|-0-0---0-0-------0----|

|
| E E E E E E E E E E E S S E E E E
 
 |-----------------|----------------------|
 |-----------------|----------------------|
 |-----------------|----------------------|
 |-----2-------2---|-----2------5--7----8-|
 |-----2-------2---|-----2------5--7----8-|
 |-0-0-0-0-0-0-0-0-|-0-0-0-0-0--3--5-0--6-|

E E [E5]E E E E E E E E E S S [G5] E [A5] E E [Bb5] E
 
 |-----------------|------------------------||
 |-----------------|------------------------||
 |-----9-------9---|-----9-----12-14---15---||
 |-----9-------9---|-----9-----12-14---15---||
 |-----7-------7---|-----7-----10-12---13---||
 |-0-0---0-0-0---0-|-0-0---0-0-------0------||

|
| E E E E E E E E E E E S S E E E E
 
 |-----------------|------------------------||
 |-----------------|------------------------||
 |-----------------|------------------------||
 |-----2-------2---|-----2------5--7----8---||
 |-----2-------2---|-----2------5--7----8---||
 |-0-0-0-0-0-0-0-0-|-0-0-0-0-0--3--5-0--6---||

Verse
N.C.
Gtrs I, II
E E E E E E E E E E E E E E E E 6x
 
 ||------------------|---------------------||
 ||o-----------------|--------------------o||
 ||------9-------9---|-----9---------------||
 ||------------------|---------------------||
 ||o-7-7---7-7-7---7-|-7-7---7-10-12-7-13-o||
 ||------------------|---------------------||

Chorus
E E [E5]E E E E E E E E E S S [G5] E [A5] E E [Bb5] E
 
 |-----------------|----------------------|
 |-----------------|----------------------|
 |-----9-------9---|-----9-----12-14---15-|
 |-----9-------9---|-----9-----12-14---15-|
 |-----7-------7---|-----7-----10-12---13-|
 |-0-0---0-0-0---0-|-0-0---0-0-------0----|

|
| Gtr II
| E E E E E E E E E E E S S E E E E
 
 |-----------------|----------------------|
 |-----------------|----------------------|
 |-----------------|----------------------|
 |-----2-------2---|-----2------5--7----8-|
 |-----2-------2---|-----2------5--7----8-|
 |-0-0-0-0-0-0-0-0-|-0-0-0-0-0--3--5-0--6-|

E E [E5]E E E E E E E E E S S [G5] E [A5] E E [Bb5] E
 
 |-----------------|------------------------|
 |-----------------|------------------------|
 |-----9-------9---|-----9-----12-14---15---|
 |-----9-------9---|-----9-----12-14---15---|
 |-----7-------7---|-----7-----10-12---13---|
 |-0-0---0-0-0---0-|-0-0---0-0-------0------|

|
| E E E E E E E E E E E S S E E E E
 
 |-----------------|------------------------|
 |-----------------|------------------------|
 |-----------------|------------------------|
 |-----2-------2---|-----2------5--7----8---|
 |-----2-------2---|-----2------5--7----8---|
 |-0-0-0-0-0-0-0-0-|-0-0-0-0-0--3--5-0--6---|

( Tab from: http://www.guitartabs.cc/tabs/r/rammstein/links_2_3_4_tab_ver_9.html )
E E [E5]E E E E E E E E E S S [G5] E [A5] E E [Bb5] E
 
 |-----------------|----------------------|
 |-----------------|----------------------|
 |-----9-------9---|-----9-----12-14---15-|
 |-----9-------9---|-----9-----12-14---15-|
 |-----7-------7---|-----7-----10-12---13-|
 |-0-0---0-0-0---0-|-0-0---0-0-------0----|

|
| E E E E E E E E E E E S S E E E E
 
 |-----------------|----------------------|
 |-----------------|----------------------|
 |-----------------|----------------------|
 |-----2-------2---|-----2------5--7----8-|
 |-----2-------2---|-----2------5--7----8-|
 |-0-0-0-0-0-0-0-0-|-0-0-0-0-0--3--5-0--6-|

E E [E5]E E E E E E E E E S S [G5] E [A5] E E [Bb5] E
 
 |-----------------|------------------------||
 |-----------------|------------------------||
 |-----9-------9---|-----9-----12-14---15---||
 |-----9-------9---|-----9-----12-14---15---||
 |-----7-------7---|-----7-----10-12---13---||
 |-0-0---0-0-0---0-|-0-0---0-0-------0------||

|
| E E E E E E E E E E E S S E E E E
 
 |-----------------|------------------------||
 |-----------------|------------------------||
 |-----------------|------------------------||
 |-----2-------2---|-----2------5--7----8---||
 |-----2-------2---|-----2------5--7----8---||
 |-0-0-0-0-0-0-0-0-|-0-0-0-0-0--3--5-0--6---||

[E5]Gtrs I, II[G5] [A5] [Bb5]
W W W +H S S S S Q
 
 |----------|----------|----------|---------------------|
 |----------|----------|----------|---------------------|
 |----------|----------|----------|---------------------|
 |-2--------|-5--------|-7--------|-(7)------------8----|
 |-2--------|-5--------|-7--------|-(7)------------8----|
 |-0--------|-3--------|-5--------|-(5)----5-5-5-5-6----|

[E5]W [G5]W [A5]W +H S S S S [Bb5]Q
 
 |----------|----------|----------|---------------------||
 |----------|----------|----------|---------------------||
 |----------|----------|----------|---------------------||
 |-2--------|-5--------|-7--------|-(7)------------8----||
 |-2--------|-5--------|-7--------|-(7)------------8----||
 |-0--------|-3--------|-5--------|-(5)----5-5-5-5-6----||

Verse
Gtr [E5]I[G5A5] [Bb5] [E5] [G5A5] [Bb5]
E E E E E E E E E E E E E E E E E E E E E E E E E E E E E E E E 4x
 
 ||------------------|-----------------|-----------------|-------------------||
 ||o-----------------|-----------------|-----------------|------------------o||
 ||------------------|-----------------|-----------------|-------------------||
 ||------2-------2---|-----2---5-7---8-|-----2-------2---|-----2---5-7---8---||
 ||o-----2-------2---|-----2---5-7---8-|-----2-------2---|-----2---5-7---8--o||
 ||--0-0-0-0-0-0-0-0-|-0-0-0-0-3-5-0-6-|-0-0-0-0-0-0-0-0-|-0-0-0-0-3-5-0-6---||

Chorus
E E [E5]E E E E E E E E E E [G5A5]E E E [Bb5]E E E [E5]E E E E E E E E E S S [G5] E [A5] E E [Bb5] E
 
 |-----------------|-----------------||-----------------|----------------------|
 |-----------------|-----------------||-----------------|----------------------|
 |-----------------|-----------------||-----9-------9---|-----9-----12-14---15-|
 |-----2-------2---|-----2---5-7---8-||-----9-------9---|-----9-----12-14---15-|
 |-----2-------2---|-----2---5-7---8-||-----7-------7---|-----7-----10-12---13-|
 |-0-0-0-0-0-0-0-0-|-0-0-0-0-3-5-0-6-||-0-0---0-0-0---0-|-0-0---0-0-------0----|

|
| Gtr II
| W W E E E E E E E E E E E E E E E E
 
 |-----------------|-----------------||-----------------|----------------------|
 |-----------------|-----------------||-----------------|----------------------|
 |-----------------|-----------------||-----------------|----------------------|
 |-----------------|-----------------||-----2-------2---|-----2------5--7----8-|
 |-----------------|-----------------||-----2-------2---|-----2------5--7----8-|
 |-----------------|-----------------||-0-0-0-0-0-0-0-0-|-0-0-0-0----3--5-0--6-|

E E [E5]E E E E E E E E E S S [G5] E [A5] E E [Bb5] E
 
 |-----------------|----------------------|
 |-----------------|----------------------|
 |-----9-------9---|-----9-----12-14---15-|
 |-----9-------9---|-----9-----12-14---15-|
 |-----7-------7---|-----7-----10-12---13-|
 |-0-0---0-0-0---0-|-0-0---0-0-------0----|

|
| E E E E E E E E E E E S S E E E E
 
 |-----------------|----------------------|
 |-----------------|----------------------|
 |-----------------|----------------------|
 |-----2-------2---|-----2------5--7----8-|
 |-----2-------2---|-----2------5--7----8-|
 |-0-0-0-0-0-0-0-0-|-0-0-0-0-0--3--5-0--6-|

E E [E5]E E E E E E E E E S S [G5] E [A5] E E [Bb5] E
 
 |-----------------|------------------------|
 |-----------------|------------------------|
 |-----9-------9---|-----9-----12-14---15---|
 |-----9-------9---|-----9-----12-14---15---|
 |-----7-------7---|-----7-----10-12---13---|
 |-0-0---0-0-0---0-|-0-0---0-0-------0------|

|
| E E E E E E E E E E E S S E E E E
 
 |-----------------|------------------------|
 |-----------------|------------------------|
 |-----------------|------------------------|
 |-----2-------2---|-----2------5--7----8---|
 |-----2-------2---|-----2------5--7----8---|
 |-0-0-0-0-0-0-0-0-|-0-0-0-0-0--3--5-0--6---|

E E [E5]E E E E E E E E E S S [G5] E [A5] E E [Bb5] E
 
 |-----------------|----------------------|
 |-----------------|----------------------|
 |-----9-------9---|-----9-----12-14---15-|
 |-----9-------9---|-----9-----12-14---15-|
 |-----7-------7---|-----7-----10-12---13-|
 |-0-0---0-0-0---0-|-0-0---0-0-------0----|

|
| E E E E E E E E E E E S S E E E E
 
 |-----------------|----------------------|
 |-----------------|----------------------|
 |-----------------|----------------------|
 |-----2-------2---|-----2------5--7----8-|
 |-----2-------2---|-----2------5--7----8-|
 |-0-0-0-0-0-0-0-0-|-0-0-0-0-0--3--5-0--6-|

Guitar Solo
S S S S [E5] S S S S S S S S [E5]S S S S
 
 ||-------------------------------------|
 ||o-7p0-8p0-10p0-12p0-10p0-8p0-7p0-8p0-|
 ||-------------------------------------|
 ||-------------------------------------|
 ||o------------------------------------|
 ||-------------------------------------|

|
| E E E E E E E E
 
 ||-------------------------------------|
 ||o------------------------------------|
 ||-----------9-----------------9-------|
 ||-----------9-----------------9-------|
 ||o----------7-----------------7-------|
 ||--0---0---------0----0---0-------0---|

S S S S [E5] S S S S [G5] S S [A5] S S Q [Bb5] S S S S [E5] S S S S S S S S [E5]S S S S
 
 |-----------------------------------|------------------------------------|
 |-10p0-12p0-10p0-8p0--7p0--8p0-5----|-7p0-8p0-10p0-12p0-10p0-8p0-7p0-8p0-|
 |-----------------------------------|------------------------------------|
 |-----------------------------------|------------------------------------|
 |-----------------------------------|------------------------------------|
 |-----------------------------------|------------------------------------|

|
| E E E E E E E E E E E E E E E E
 
 |-----------------------------------|------------------------------------|
 |-----------------------------------|------------------------------------|
 |------------9-------12---14-----15-|----------9-----------------9-------|
 |------------9-------12---14-----15-|----------9-----------------9-------|
 |------------7-------10---12-----13-|----------7-----------------7-------|
 |--0----0--------0-------------0----|-0---0---------0----0---0-------0---|

Out-Chorus
S S S S [E5] S S S S [G5] S S [A5] S S Q [Bb5] [E5] +W [G5]W
 
 |-------------------------------------||-------------|------|
 |-10p0-12p0-10p0-8p0--7p0--8p0-12----o||-(12)--------|------|
 |-------------------------------------||-------------|------|
 |-------------------------------------||-------------|-5----|
 |------------------------------------o||-------------|-5----|
 |-------------------------------------||-------------|-3----|

|
| E E E E E E E E W W
 
 |-------------------------------------||-------------|------|
 |------------------------------------o||-------------|------|
 |------------9-------12---14------15--||-------------|------|
 |------------9-------12---14------15--||---2---------|-5----|
 |------------7-------10---12------13-o||---2---------|-5----|
 |--0----0--------0--------------0-----||---0---------|-3----|

[A5]Gtrs I, II[Bb5] [E5] [G5]
W +H S S S S Q W W
 
 |----------|-------------------|----------|------|
 |----------|-------------------|----------|------|
 |----------|-------------------|----------|------|
 |-7--------|-(7)------------8--|-2--------|-5----|
 |-7--------|-(7)------------8--|-2--------|-5----|
 |-5--------|-(5)----5-5-5-5-6--|-0--------|-3----|

[A5]W +H S S S S [Bb5]Q [E5]W [G5]W
 
 |----------|-------------------|----------|------|
 |----------|-------------------|----------|------|
 |----------|-------------------|----------|------|
 |-7--------|-(7)------------8--|-2--------|-5----|
 |-7--------|-(7)------------8--|-2--------|-5----|
 |-5--------|-(5)----5-5-5-5-6--|-0--------|-3----|

[A5]W +H S S S S [Bb5]Q [E5]W [G5]W
 
 |----------|-------------------|----------|------|
 |----------|-------------------|----------|------|
 |----------|-------------------|----------|------|
 |-7--------|-(7)------------8--|-2--------|-5----|
 |-7--------|-(7)------------8--|-2--------|-5----|
 |-5--------|-(5)----5-5-5-5-6--|-0--------|-3----|

[A5]W +H S S S S [Bb5]Q
 
 |----------|-------------------*|
 |----------|-------------------*|
 |----------|-------------------*|
 |-7--------|-(7)------------8--*|
 |-7--------|-(7)------------8--*|
 |-5--------|-(5)----5-5-5-5-6--*|

Duration Legend
 
 ---------------
 W - whole; H - half; Q - quarter; E - 8th; S - 16th; T - 32nd; X - 64th; a - acciaccatura

+ - note tied to previous; . - note dotted; .. - note double dotted
Uncapitalized letters represent notes that are staccato (1/2 duration)
Irregular groupings are notated above the duration line
Duration letters will always appear directly above the note/fret number it represents the
duration for. Duration letters with no fret number below them represent rests. Multi-
bar rests are notated in the form Wxn, where n is the number of bars to rest for. Low
melody durations appear below the staff
Tablature Legend
 
 ----------------

h - hammer-on
p - pull-off
b - bend
pb - pre-bend
r - bend release (if no number after the r, then release immediately)
/\ - slide into or out of (from/to "nowhere")
s - legato slide
S - shift slide
- natural harmonic
(n) - artificial harmonic
n(n) - tapped harmonic
~ - vibrato
tr - trill
T - tap
TP - trem. picking
PM - palm muting
\n/ - tremolo bar dip; n = amount to dip
\n - tremolo bar down
n/ - tremolo bar up
/n\ - tremolo bar inverted dip
= - hold bend; also acts as connecting device for hammers/pulls
- volume swell (louder/softer)
x - on rhythm slash represents muted slash
o - on rhythm slash represents single note slash
Misc Legend
 
 -----------

| - bar
|| - double bar
||o - repeat start
o|| - repeat end
*| - double bar (ending)
: - bar (freetime)
$ - Segno
& - Coda
Tempo markers - = BPM(8/16=s8/s16), where s8 = swing 8ths, s16 = swing 16ths

Important: The song above is NOT stored on the Chordie server. The original song is hosted at www.guitartabs.cc. Chordie works as a search engine and provides on-the-fly formatting. Chordie does not index songs against artists'/composers' will. To remove this song please click here.

Text color:
Chord color:
Chord grids: 
Font size:    
Page size: 

A5 Bb5 E5 G5
Rate #1 of 3 versions

Jango Player

Login - add to songbook

SHARE PAGE  



You need to log in to post comments