Guitar Tabs, Chords and Lyrics
Server problems seems to be fixed. Chordie has been experiencing problems with songs disappearing. These issues now seems to be fixed, but still verifying the fix. If you find anything strange, please email admin@chordie.com.


Somebody Put Something in My Drink   Ramones

 
 G-----------------------------------------------------|
 D-----------------------------------------------------|
 A-0-0-0-0---------------------------------------------|
 E---------1-1-1-1-3-3-3-3-0-0-0-0-0-0-0-0-0-0-0-0-0-0-|

 


 


 Verse


 


 Riff 1a


 


 

 
 G-----------------|
 D-----------------|
 A-0-0-0-0-0-0-0-0-|
 E-----------------|

 


 


 Another night out on the street


 


 Riff 1b


 


 

 
 G-----------------|
 D-----------------|
 A-----------------|
 E-1-1-1-1-1-1-1-1-|

 


 


 Stopping for my usual seat


 


 Riff 1c


 


 

 
 G-----------------|
 D-----------------|
 A-----------------|
 E-3-3-3-3-3-3-3-3-|

 


 


 Oh, bartender, please


 


 Dacqari tonic's my favorite drink (1a)


 I don't like anything colored pink (1b)


 That just stinks...it's not for me, it feels like (1c)


 


 Riff 1d


 


 [G----]  


 [D----]  


 [A----]  


 [E-1/3]  


 


 Refrain


 


 Riff 2a


 


 

 
 G---------------------------------------------------------|
 D---------------------------------------------------------|
 A-0-0-0-0-0-0-0-------------------------------------------|
 E---------------1-1-1-1-1-1-1-3-3-3-3-3-3-3-0-0-0-0-0-0-0-|

 


 


 Somebody put something somebody put something in my drink


 


 Riff 2b


 ( Tab from: http://www.guitartabs.cc/tabs/r/ramones/somebody_put_something_in_my_drink_btab.html )


 

 
 G-----------------------------------------------------------------------|
 D-----------------------------------------------------------------------|
 A-0-0-0-0-0-0-0---------------------------------------------------------|
 E---------------1-1-1-1-1-1-1-3-3-3-3-3-3-3-0-0-0-0-0-0-0-0-0-0-0-0-0-0-|

 


 


 Somebody put something somebody put something


 


 Verse


 


 Blurred vision and dirty thoughts (1a)


 Feel out of place, very distraught (1b)


 Feel something coming on (1c)


 


 Kick the jukebox, slam the floor (1a)


 Drink, drink, drink, drink some more (1b)


 I can't think, hey! What's in this drink? It feels like (1c)


 


 [(1d)]  


 


 Refrain


 


 Somebody put something somebody put something in my drink (2a)


 Somebody put something somebody put something in my drink (2a)


 


 Somebody put something somebody put something in my drink (2a)


 Somebody put something (2b)


 


 Riff 3a


 


 

 
 G-----------------|
 D-----------------|
 A-----------------|
 E-3-3-3-3-0-0-0-0-|

 


 


 In my drink


 In my drink


 In my drink


 


 Riff 3b


 


 

 
 G-------------------------------------------|
 D-------------------------------------------|
 A-0-0-0-0-0-0-0-----------------------------|
 E---------------1-1-1-1-1-1-1-3-3-3-3-3-3-3-|


Important: The song above is NOT stored on the Chordie server. The original song is hosted at www.guitartabs.cc. Chordie works as a search engine and provides on-the-fly formatting. Chordie does not index songs against artists'/composers' will. To remove this song please click here.

This song is displayed as text-only. Transposing and tuning is only available for chordpro-songs.
Rate #1 of 3 versions

Login - add to songbook

SHARE PAGE  



You need to log in to post comments