Guitar Tabs, Chords and Lyrics
Server problems seems to be fixed. Chordie has been experiencing problems with songs disappearing. These issues now seems to be fixed, but still verifying the fix. If you find anything strange, please email admin@chordie.com.


Justify  The Rasmus

 
 -------------------------------------------------------------------------

JUSTIFY ? The Rasmus
 
 -------------------------------------------------------------------------

Tabbed by: Kengus
Standard tuning G6 = 355400
Capo on first fret!
INTRO
[Bm] [G6]  
 
 e|-----4/5-3-2------4/5-3-2----0-2----0-2----|
 B|---3------------3----------3-----3------3--|
 G|-4------------4----------------------------| x2
 D|-------------------------------------------|
 A|-------------------------------------------|
 E|-------------------------------------------|

VERSE1
[Dsus2] So close, so far, Iīm lost in [A]time
Ready to follow a [Em]sign, if there was only a [Dsus2]sign
The last goodbye burns in my [A]mind, why did I leave you be[Em]hind?
Guess it was too high to [D]climb
CHORUS
[Bm]Give me a reason, why would you want me to [G6]live and die, livin? a lie
[Bm]You were the answer, all that I needed to [G6]justify, justify my[(Dsus2)] life
VERSE2
[Dsus2] Someone as beautiful as [A]you, could do much better, itīs [Em]true
That didn?t matter to [Dsus2]you
I tried so hard to be the [A]one, itīs something I couldnīt [Em]do
Guess I was under the [D]gun
CHORUS
[Bm]Give me a reason, why would you want me to [G6]live and die, livin? a lie
Bm G6 Bm...
You were the answer, all that I needed to justify, justify my life
BRIDGE
...A Bm
Itīs only right
[A] That I should [G]go and find mys[D]elf before I [Bm]go and ruin [A]someone else
VERSE3
[Dsus2] So close, so far, Iīm lost in [A]time
Ready to follow a [Em]sign, if there was only a [D]sign
CHORUS
[Bm]Give me a reason, why would you want me to [G6]live and die, livin? a lie
[Bm]You were the answer, all that I needed to [G6]justify, justify my [Bm]life
[A] Itīs only [Bm]right
[A] That I should [G]go and find mys[D]elf before I [Bm]go and ruin [A]someone else
OUTRO (repeat intro)
[Bm] [G6]  
 
 e|-----4/5-3-2------4/5-3-2----0-2----0-2----|
 B|---3------------3----------3-----3------3--|
 G|-4------------4----------------------------| x2
 D|-------------------------------------------|
 A|-------------------------------------------|
 E|-------------------------------------------|

[(Dsus2)]  
=========================================================================
Comment, rate, appreciate!

Important: The song above is NOT stored on the Chordie server. The original song is hosted at www.guitartabs.cc. Chordie works as a search engine and provides on-the-fly formatting. Chordie does not index songs against artists'/composers' will. To remove this song please click here.

Text color:
Chord color:
Chord grids: 
Font size:    
Page size: 

A Bm D Dsus2 Em G G6
Rate #2 of 2 versions

Jango Player

Login - add to songbook

SHARE PAGE  



You need to log in to post comments