Guitar Tabs, Chords and Lyrics
Server problems seems to be fixed. Chordie has been experiencing problems with songs disappearing. These issues now seems to be fixed, but still verifying the fix. If you find anything strange, please email admin@chordie.com.


Keep Your Heart Broken  The Rasmus

The rasmus
Track number 9 from Hide From The Sun (2005)
Tabbed By: Mariano Arnaiz
Anything to : marianoarnaiz@hotmail.com
Tunning: standar
Intro
Clean Piano
 
 e||-----------------------------------| |--------------||
 B||-----------------------------------| |--------------||
 G||-----------------------------6-----| x3 |--------------||
 D||----4----6-7------4--7-----4-------| |----4----6-7--||
 A||--4---4-------4-2--------4---------| |--4---4-------||
 E||-----------------------------------| |--------------||

Distorted
 
 e||-----------------------------------||
 B||-----------------------------------||
 G||-----------------------------6-----|| x4
 D||----4----6-7------4--7-----4-------||
 A||--4---4-------4-2--------4---------||
 E||-----------------------------------|| 

Verse 1 (Clean and strumm softly, dont palmute it)
[F#5]Enfolding your love in my h[B5]eart
[D5]By the dawn I?ll be[Db5]come
[F#5]The road keeps us a[B5]part
[D5]For some time I?ll be [Db5]gone.
Pre - chours (light distortion, strumm softly)
[F#5]You promise you [Db5]swallow your [A5]tears when I [B5]leave you
[F#5]You promise to f[Db5]ollow the lea[A5]ds I would gi[B5]ve you,
[F#5]You said you wou[Db5]ld crawl in t[A5]he dark from [B5]the laughter
[B5]You said you would long after [Db5]me ever after.
Chorus (distorted, strum normaly)
[A5]My love will grow [E5]black if you heart get [F#5]stolen
[Db5]Just promise to [B5]keep your heart?
[A5]One day I?ll come [E5]back if the door´s still [F#5]open
[Db5]Just promise to [B5]keep your heart [F#5]broken.
Pre - verse (Distorted)
 
 e||-----------------------------------||
 B||-----------------------------------||
 G||-----------------------------6-----|| x2
 D||----4----6-7------4--7-----4-------||
 A||--4---4-------4-2--------4---------||
 E||-----------------------------------|| 

Verse 2 (Clean and strumm softly, dont palmute it)
[F#5]Days go by like the [B5]wind
And this l[D5]ife it?s too s[Db5]hort
[F#5]It makes no sense to [B5]give in
To re[D5]lease you from my th[Db5]oughts.
Pre - chours (light distortion, strumm softly)
[F#5]I promise to [Db5]write you I?ll [A5]always re[B5]member,
[F#5]I promise to [Db5]try to be [A5]back `till De[B5]cember
[F#5]I said I must [Db5]go, I must f[A5]ace this di[B5]saster,
[B5]I said I would come after [Db5]you ever after.
Chorus (distorted, strum normaly)
[A5]My love will grow [E5]black if you heart get [F#5]stolen
[Db5]Just promise to [B5]keep your heart?
[A5]One day I?ll come [E5]back if the door´s still [F#5]open
[Db5]Just promise to [B5]keep your heart [F#5]broken.
Bridge
(Clean piano)
Riff 1
If you just promise to keep your heart?
Riff 1
Promise to keep your heart broken
Riff 2
If you just promise to keep your heart,
Riff 1 Riff 2
 
 e||-----------------------------------|| e||--------------||
 B||-----------------------------------|| B||--------------||
 G||-----------------------------6-----|| G||--------------||
 D||----4----6-7------4--7-----4-------|| D||----4----6-7--||
 A||--4---4-------4-2--------4---------|| A||--4---4-------||
 E||-----------------------------------|| E||--------------||

(Ditorted Stumm hard)
[F#5]Broken, B[F#5]roken.
Chorus (distorted, strum normaly)
[A5]My love will grow [E5]black if you heart get [F#5]stolen
[Db5]Just promise to [B5]keep your heart?
[A5]One day I?ll come [E5]back if the door´s still [F#5]open
Db5 B5 starts outro
Just promise to keep your heart broken.
Outro
For ever and after my life
just promise to keep your heart broken....
 
 e||-----------------------------------| |--------------||
 B||-----------------------------------| |--------------||
 G||-----------------------------6-----| x3 |--------------||
 D||----4----6-7------4--7-----4-------| |----4----6-7--||
 A||--4---4-------4-2--------4---------| |--4---4-------||
 E||-----------------------------------| |--------------||

The end
Chords
[F#5] [B5] [D5] [Db5] [A5] [E5]  
 
 e||---------------------------||
 B||---------------------------||
 G||-------4---7---6--------4--||
 D||--4----4---7---6---7----2--||
 A||--4----2---5---4---7----2--||
 E||--2----------------5----0--|| 

By the way in the verse you can play the power chords as normal chords like this, following the melody.
[F#5] [B5] [D5] [Db5]  
 
 e||--2----2---5---4---||
 B||--2----3---7---6---||
 G||--2----4---7---6---||
 D||--4----4---7---6---||
 A||--4----2---5---4---||
 E||--2----------------|| 

[F#m] [Bm] [D] [Db]  

Important: The song above is NOT stored on the Chordie server. The original song is hosted at www.guitartabs.cc. Chordie works as a search engine and provides on-the-fly formatting. Chordie does not index songs against artists'/composers' will. To remove this song please click here.

Text color:
Chord color:
Chord grids: 
Font size:    
Page size: 

A5 B5 Bm D D5 Db Db5 E5 F#5 F#m
Rate #1 of 2 versions

Login - add to songbook

SHARE PAGE  




You need to log in to post comments