Guitar Tabs, Chords and Lyrics
Major upgrade!! After one year development the new version of Chordie is now online! Please give feedback.


Pa-Pa  The Rasmus

Artist : Rasmus |
Song : Pa-Pa |
Album : Peep |
Tuning : Standard |
____________________|
Intro
H5 E5 F#5 E5 4x H5
 
 |---------------------------|-----------------|
 |---------------------------|-----------------|
 |--4-4-4--------------------|-4~~~~~~~~~~~~~~~|
 |--4-4-4--2-2--4-4-4--2-2---|-4~~verse starts~|
 |--2-2-2--2-2--4-4-4--2-2---|-2~~~~~~~~~~~~~~~|
 |---------0-0--2-2-2--0-0---|-----------------|

H5 ~~~~~~~~~~~~~~~~~~~~~~~~~~~>
as you can see right now my friend i'm falling
E5 G#5 F5 H5 (let ring)
but i'm not falling in love
H5 ~~~~~~~~~~~~~~~~~~~~~~~~~~~~>
as you can see right now my friend i'm crawling
[E5] 'n i'[G#5]m not crawlin[F#5] back to you
Chorus
[G#5]i'm gonna d[F#5]o things [B5]i wann[G#5]a do
[G#5]i'm gonna s[F#5]ay things[B5] i wan[G#5]na say
[G#5]i'm gonna d[F#5]o things [B5]i wann[G#5]a say
[G5]aaaaaaa[Bb5]ah
H5 E5 F#5 E5 4x H5
 
 |---------------------------|--------|
 |---------------------------|--------|
 |--4-4-4--------------------|---4~~--|
 |--4-4-4--2-2--4-4-4--2-2---|---4~~--|
 |--2-2-2--2-2--4-4-4--2-2---|---2~~--|
 |---------0-0--2-2-2--0-0---|--------|

papapapapapapapapapapa..
H5~~~~~~~~~~~~~~>
as you can see right now my friend i'm dreaming
E5 G#5 F#5 H5~~
but i'm not dreaming of you
H5~~~~~~~~~~~~~~>
if you really try you'll get my meaning
[E5]that i[G#5]'m not coming ba[F#5]ck to you
Chorus
[G#5]i'm gonna d[F#5]o things [B5]i wann[G#5]a do
[G#5]i'm gonna s[F#5]ay things[B5] i wan[G#5]na say
[G#5]i'm gonna d[F#5]o things [B5]i wann[G#5]a say
[G#5]aaaaaaaa[Bb5]h
H5 E5 F#5 E5 4x H5
 
 |---------------------------|--------|
 |---------------------------|--------|
 |--4-4-4--------------------|---4~~--|
 |--4-4-4--2-2--4-4-4--2-2---|---4~~--|
 |--2-2-2--2-2--4-4-4--2-2---|---2~~--|
 |---------0-0--2-2-2--0-0---|--------|

papapapapapapapapapapa..
Enjoy
Please rate , questions or corrections to schattenkrieger2005@hotmail.de

Important: The song above is NOT stored on the Chordie server. The original song is hosted at www.guitartabs.cc. Chordie works as a search engine and provides on-the-fly formatting. Chordie does not index songs against artists'/composers' will. To remove this song please click here.

Text color:
Chord color:
Chord grids: 
Font size:    
Page size: 

B5 Bb5 E5 F#5 G#5 G5
Rate #1 of 2 versions

Jango Player

Login - add to songbook

SHARE PAGE  




You need to log in to post comments